Song name
# A B C D E F G H I J K L M N O P Q R S T U V W X Y Z

Nico Touches The Walls - Hologram tab

Tabbed by: Me
Email@ jonahrockson@hotmail.com


Right, I got tired of having no tab of this up, chords are great and all but solid tabs 
are much better. So here you have it, the full song (albeit only the LEAD guitar has 
been tabbed) by NICO. Enjoy, comment and rate please.                                  Hologram


                                   Hologram


                                                          NICO Touches the Walls
Track 1



     Intro
     E     E  E  Q    E  E  E     E  E  E  Q    E  E  E
E||--1-----1--0--1----1--0--1--|--L--1--0--1----1--1--0--|
B||--1-----1--0--1----1--0--1--|--L--1--0--1----1--1--0--|
G||--2-----2--2--2----2--2--2--|--L--2--2--2----2--2--2--|
D||--3-----3--3--3----3--3--3--|--L--3--3--3----3--3--3--|
A||--3-----3--3--3----3--3--3--|--L--3--3--3----3--3--3--|
E||----------------------------|-------------------------|


  E  E  E  Q    E  E  E     E  E  E  Q    E  E  E     W
--1--1--0--1----1--0--1--|--L--1--0--1----1--1--0--|--0----------------|
--1--1--0--1----1--0--1--|--L--1--0--1----1--1--0--|--1----------------|
--2--2--2--2----2--2--2--|--L--2--2--2----2--2--2--|--2----------------|
--2--2--2--2----2--2--2--|--L--2--2--2----2--2--2--|--2----------------|
-------------------------|-------------------------|--0----------------|
-------------------------|-------------------------|-------------------|


  W                   Q    E  Q    E  Q       E  Q    E  H
--0----------------|--3----3--3----3--3----|--3--3----3--3--------|
--0----------------|--5----3--5----3--5----|--3--5----3--5--------|
--0----------------|--5----4--5----4--5----|--4--5----4--5--------|
--2----------------|-----------------------|----------------------|
--2----------------|-----------------------|----------------------|
--0----------------|-----------------------|----------------------|


  Intro lead
  E          E  E  E  E  E  E  E     E  E  E  E  E  E  E  E
--3-------------------------3-----|--------------3-----------|
-------------0--1-----0--1-----0--|--1-----0--1-----0--1-----|
-------------------2--------------|-----2-----------------2--|
----------------------------------|--------------------------|
----------------------------------|--------------------------|
----------------------------------|--------------------------|


  E  E  E  E  E  E  E  E     E  Q    Q     E  Q       E  E  E  E  E  E  E  E
--------3-----------------|----------0-----L-------|--3-----------------3-----|
--0--1-----0--1-----0--1--|--L--3----3b----L--1----|-----0--1-----0--1-----0--|
-----------------2--------|------------------------|-----------2--------------|
--------------------------|------------------------|--------------------------|
--------------------------|------------------------|--------------------------|
--------------------------|------------------------|--------------------------|


  E  E  E  E  E  E  E  E     E  E  E  Q     E  Q       H        E  E  E  E
--------------3-----------|-----------0-----L-------|--------------------3--|
--1-----0--1-----0--1-----|--0--1--3--3b----L--1----|--L--------0--1--3--3--|
-----2-----------------2--|-------------------------|-----------------------|
--------------------------|-------------------------|-----------------------|
--------------------------|-------------------------|-----------------------|
--------------------------|-------------------------|-----------------------|


  Verse
  W                   W
--L----------------|--L----------------|-------------------|-------------------|
--L----------------|--L----------------|-------------------|-------------------|
-------------------|-------------------|-------------------|-------------------|
-------------------|-------------------|-------------------|-------------------|
-------------------|-------------------|-------------------|-------------------|
-------------------|-------------------|-------------------|-------------------|


-------------------|-------------------|-------------------|-------------------|
-------------------|-------------------|-------------------|-------------------|
-------------------|-------------------|-------------------|-------------------|
-------------------|-------------------|-------------------|-------------------|
-------------------|-------------------|-------------------|-------------------|
-------------------|-------------------|-------------------|-------------------|


   Verse part 2
   E            E    E    H          E
-------------------------(3)-------------|-------------------|
--------------------(3)-------------(3)--|-------------------|
--(4)----------(5)--------L---------(5)--|-------------------|
-----------------------------------------|-------------------|
-----------------------------------------|-------------------|
-----------------------------------------|-------------------|


    E    E    E    E    E    E    Q
------------------(5)--(3)-------(3)----|-------------------|
-------------(3)------------(3)--(3)----|-------------------|
--/(4)--(5)-----------------------------|-------------------|
----------------------------------------|-------------------|
----------------------------------------|-------------------|
----------------------------------------|-------------------|


   E    E    E    H          E            Q    E  E  Q    E  E
-----------------(3)-------------|-----|------------------------|
------------(3)-------------(3)--|-----|----------1-------------|
--(4)--(5)--------L---------(5)--|-----|---------------------0--|
---------------------------------|-----|-------2----------2-----|
---------------------------------|-----|--3----------2----------|
---------------------------------|-----|------------------------|


  E  E  E  E  H           E  E  Q    E  E  Q       E  E  E  E  E  E  Q
-----3--1--0-----------|------------------------|-------------------------|
--------------1--------|--------1---------------|--0--1--0--1--0----------|
--L--------------------|-------------------0----|-----------------2--0----|
-----------------------|-----2----------2-------|-------------------------|
-----------------------|--3----------2----------|-------------------------|
-----------------------|------------------------|-------------------------|


  E  E  Q    E  E  Q       E  E  E  E  E  E  Q       E  E  Q    E  E  Q
--------3---------------|-------------------------|------------------------|
-----3-------------0----|--1--3--1--3--1--3--1----|--------1---------------|
--2-------------0-------|-------------------------|-------------------0----|
-------------2----------|-------------------------|-----2----------2-------|
------------------------|-------------------------|--3----------2----------|
------------------------|-------------------------|------------------------|


  E  E  E  E  H           Q    E  Q    Q    E     E  E  E  E   H
-----------------------|-----------------------|-------------------------|
--0--1--0--------------|-----------------------|--------------15b--------|
-----------2--0--------|--7----5--7----5----9--|--L--9--9--9-------------|
-----------------------|-----------------------|-------------------------|
-----------------------|--5----3--5----3----7--|--L--7--7--7-------------|
-----------------------|-----------------------|-------------------------|


   Chorus
   Q      E   Q     Q     E     E   E   E   E   Q     Q
-----------------------------|-----------------------------|
--13---------12----------12--|--L------12------13----------|
--12-----12--------12----12--|--L--12------12--12----12----|
-----------------------------|-----------------------------|
-----------------------------|-----------------------------|
-----------------------------|-----------------------------|


   Q     E   Q     Q     E     E   E   E   E   Q     Q
----------------------------|-----------------------------|
--13--------12----------12--|--L------12------12----------|
--12----12--------12----12--|--L--12------12--------12----|
----------------------------|-----------------------------|
----------------------------|-----------------------------|
----------------------------|-----------------------------|


   Q     E   Q     Q     E     E   E   E   E   Q     Q
----------------------------|-----------------------------|
--13--------12----------12--|--L------12------13----------|
--12----12--------12--------|--L--12------12--12----12----|
----------------------------|-----------------------------|
----------------------------|-----------------------------|
----------------------------|-----------------------------|


   Q     E   Q     Q     E     E   E   E   E   Q     Q
----------------------------|-----------------------------|
--13--------15----------13--|--L------12------12----------|
--12----12--12----12----12--|--L--12------12--------12----|
----------------------------|-----------------------------|
----------------------------|-----------------------------|
----------------------------|-----------------------------|


   Q     E   Q     Q     E     E   E   E   E   Q     Q
----------------------------|-----------------------------|
--13--------12----------12--|--L------12------13----------|
--12----12--------12----12--|--L--12------12--12----12----|
----------------------------|-----------------------------|
----------------------------|-----------------------------|
----------------------------|-----------------------------|


   Q     E   Q     Q     E     E   E   E   E   Q     Q
----------------------------|-----------------------------|
--13--------12----------12--|--L------12------12----------|
--12----12--------12----12--|--L--12------12--------12----|
----------------------------|-----------------------------|
----------------------------|-----------------------------|
----------------------------|-----------------------------|


                                 Intro lead
   Q     E   Q     E   E   E     E          E  E  E  E  E  E  E
------------------------------|--3-------------------------3-----|
--13--------15--------12------|-------------0--1-----0--1-----0--|
--12----12--12----12------12--|-------------------2--------------|
------------------------------|----------------------------------|
------------------------------|----------------------------------|
------------------------------|----------------------------------|


  E  E  E  E  E  E  E  E     E  E  E  E  E  E  E  E     E  Q    Q     E  Q
--------------3-----------|--------3-----------------|----------0-----L-------|
--1-----0--1-----0--1-----|--0--1-----0--1-----0--1--|--L--3----3b----L--1----|
-----2-----------------2--|-----------------2--------|------------------------|
--------------------------|--------------------------|------------------------|
--------------------------|--------------------------|------------------------|
--------------------------|--------------------------|------------------------|


  E  E  E  E  E  E  E  E     E  E  E  E  E  E  E  E     E  E  E  Q     E  Q
--3-----------------3-----|--------------3-----------|-----------0-----L-------|
-----0--1-----0--1-----0--|--1-----0--1-----0--1-----|--0--1--3--3b----L--1----|
-----------2--------------|-----2-----------------2--|-------------------------|
--------------------------|--------------------------|-------------------------|
--------------------------|--------------------------|-------------------------|
--------------------------|--------------------------|-------------------------|


                          Verse 2
  H        E  E  E  E     W                   W
--------------------3--|--L----------------|--L----------------|
--L--------0--1--3--3--|--L----------------|--L----------------|
-----------------------|-------------------|-------------------|
-----------------------|-------------------|-------------------|
-----------------------|-------------------|-------------------|
-----------------------|-------------------|-------------------|


                                            E     E     E     H         E
-------------------|-------------------|--------------------(15)--------L--|
-------------------|-------------------|--------------(15)-----------------|
-------------------|-------------------|--(16)--(17)-----------------------|
-------------------|-------------------|-----------------------------------|
-------------------|-------------------|-----------------------------------|
-------------------|-------------------|-----------------------------------|


-------------------|-------------------|-------------------|
-------------------|-------------------|-------------------|
-------------------|-------------------|-------------------|
-------------------|-------------------|-------------------|
-------------------|-------------------|-------------------|
-------------------|-------------------|-------------------|


   Verse part 2
   E            E    E    H          E
-------------------------(3)-------------|-------------------|
--------------------(3)-------------(3)--|-------------------|
--(4)----------(5)--------L---------(5)--|-------------------|
-----------------------------------------|-------------------|
-----------------------------------------|-------------------|
-----------------------------------------|-------------------|


    E    E    E    E    E    E    Q
------------------(5)--(3)-------(3)----|-------------------|
-------------(3)------------(3)--(3)----|-------------------|
--/(4)--(5)-----------------------------|-------------------|
----------------------------------------|-------------------|
----------------------------------------|-------------------|
----------------------------------------|-------------------|


   Verse part 2
   E            E    E    H          E
-------------------------(3)-------------|-------------------|
--------------------(3)-------------(3)--|-------------------|
--(4)----------(5)--------L---------(5)--|-------------------|
-----------------------------------------|-------------------|
-----------------------------------------|-------------------|
-----------------------------------------|-------------------|


  Q    E  E  Q    E  E     E  E  E  E  H           Q    E    E   E   E  Q
------------------------|-----3--1--0-----------|----------------------------|
----------1-------------|--------------1--------|--8----8s--10--10s--8--8----|
---------------------0--|--L--------------------|----------------------------|
-------2----------2-----|-----------------------|--5----5s---7---7s--5--5----|
--3----------2----------|-----------------------|----------------------------|
------------------------|-----------------------|----------------------------|


  Q    Q    E   E  E   E     Q    E  E  E  E  Q       E  E  Q    E  E  Q
--------------------------|------------------------|------------------------|
--8----8----5s--6--6s--8--|--8----8--8--8--8--8----|------------------------|
--------------------------|------------------------|------------------------|
--5----5----2s--3--3s--5--|--5----5--5--5--5--5----|--5--5--5----5--5--5----|
--------------------------|------------------------|--3--3--3----3--3--3----|
--------------------------|------------------------|------------------------|


  Q    E  E  E  E  Q         Q     E   E   E   E   Q
-------------------------|------------------------------|
--8----8--8--8--8--8s----|--13----13--13--13--13--13----|
-------------------------|------------------------------|
--5----5--5--5--5--5s----|--10----10--10--10--10--10----|
-------------------------|------------------------------|
-------------------------|------------------------------|


  Q    E  Q    E   Q        E   E   E  E  H
------------------------|--------------------------|
------------------------|--------------------------|
--7----7--9----9--10----|--10--10--10--9-----------|
------------------------|--------------------------|
--5----5--7----7---8----|---8---8---8--7-----------|
------------------------|--------------------------|


   Chorus
   Q      E   Q     Q     E     E   E   E   E   Q     Q
-----------------------------|-----------------------------|
--13---------12----------12--|--L------12------13----------|
--12-----12--------12----12--|--L--12------12--12----12----|
-----------------------------|-----------------------------|
-----------------------------|-----------------------------|
-----------------------------|-----------------------------|


   Q     E   Q     Q     E     E   E   E   E   Q     Q
----------------------------|-----------------------------|
--13--------12----------12--|--L------13------13----------|
--12----12--------12----12--|--L--12------12--------12----|
----------------------------|-----------------------------|
----------------------------|-----------------------------|
----------------------------|-----------------------------|


   Q     E   Q     Q     E     E   E   E   E   Q     Q
----------------------------|-----------------------------|
--13--------12----------12--|--L------12------13----------|
--12----12--------12--------|--L--12------12--12----12----|
----------------------------|-----------------------------|
----------------------------|-----------------------------|
----------------------------|-----------------------------|


   Q     E   Q     Q     E     E   E   E   E   Q     Q
----------------------------|-----------------------------|
--13--------15----------13--|--L------12------12----------|
--12----12--12----12----12--|--L--12------12--------12----|
----------------------------|-----------------------------|
----------------------------|-----------------------------|
----------------------------|-----------------------------|


   Q     E   Q     Q     E     E   E   E   E   Q     Q
----------------------------|-----------------------------|
--13--------12----------12--|--L------12------13----------|
--12----12--------12----12--|--L--12------12--12----12----|
----------------------------|-----------------------------|
----------------------------|-----------------------------|
----------------------------|-----------------------------|


   Q     E   Q     Q     E     E   E   E   E   Q     Q
----------------------------|-----------------------------|
--13--------12----------12--|--L------12------12----------|
--12----12--------12----12--|--L--12------12--------12----|
----------------------------|-----------------------------|
----------------------------|-----------------------------|
----------------------------|-----------------------------|


   Q     E   Q     E   E   E               E   E   E   E   E   E   E   E
------------------------------|-------|---------------------------12--12--|
--13--------15--------12------|-------|--/13--13--13----------------------|
--12----12--12----12------12--|-------|---------------14--14--14----------|
------------------------------|-------|-----------------------------------|
------------------------------|-------|-----------------------------------|
------------------------------|-------|-----------------------------------|


   E   E   E   E   E   E   E   E      E   E   E   E   E   E   E   E
--12------------------------------|--------------------------15--15--|
------13--13--13----------13--13--|--12--12--12----------------------|
------------------14--14----------|--------------12--12--12----------|
----------------------------------|----------------------------------|
----------------------------------|----------------------------------|
----------------------------------|----------------------------------|


   E   E   E   E   E   E   E   E      E   E   E   E   E   E   E   E
--15--13--13--13--12--12--13--13--|--------------------------12--12--|
----------------------------------|--13--13--13----------------------|
----------------------------------|--------------14--14--14----------|
----------------------------------|----------------------------------|
----------------------------------|----------------------------------|
----------------------------------|----------------------------------|


   E   E   E   E   E   E   E   E      E   E   E   E   E   E   E   E
--12------------------------------|--------------------------15--15--|
------13--13--13----------13--13--|--12--12--12----------------------|
------------------14--14----------|--------------12--12--12----------|
----------------------------------|----------------------------------|
----------------------------------|----------------------------------|
----------------------------------|----------------------------------|


   E   E   E   E   E   E   E   E      E   E   E   E   E   E   E   E
--15--13--13--13--12--12--13--13--|--------------------------12--12--|
----------------------------------|--13--13--13----------------------|
----------------------------------|--------------14--14--14----------|
----------------------------------|----------------------------------|
----------------------------------|----------------------------------|
----------------------------------|----------------------------------|


   E   E   E   E   E   E   E   E      E   E   E   E   E   E   E   E
--12------------------------------|--------------------------15--15--|
------13--13--13----------13--13--|--12--12--12----------------------|
------------------14--14----------|--------------12--12--12----------|
----------------------------------|----------------------------------|
----------------------------------|----------------------------------|
----------------------------------|----------------------------------|


   E   E   E   E   E   E   E   E      E   E   E   E   E   E   E   E
--15--13--13--13--12--12--13--13--|--------------------------12--12--|
----------------------------------|--13--13--13----------------------|
----------------------------------|--------------14--14--14----------|
----------------------------------|----------------------------------|
----------------------------------|----------------------------------|
----------------------------------|----------------------------------|


   E   E   E   E   E   E   E   E      E   E   E   E   E   E   E   E
--12------------------------------|--------------------------15--15--|
------13--13--13----------13--13--|--12--12--12----------------------|
------------------14--14----------|--------------12--12--12----------|
----------------------------------|----------------------------------|
----------------------------------|----------------------------------|
----------------------------------|----------------------------------|


   E   E   E   E   E   E   E   E     Q    E  E  E  E  Q
--15--13--13--13--12--12--13--13--|------------------------|
----------------------------------|------------------------|
----------------------------------|--7----7--7--7--7--7----|
----------------------------------|------------------------|
----------------------------------|--5----5--5--5--5--5----|
----------------------------------|------------------------|


  Q    E  E  E  E  Q       Q    E  E  E  E  Q       E   Q    E  E  E   E  E
------------------------|------------------------|---------------------------|
------------------------|------------------------|--6s--8----8--8--8s--6--6--|
--9----9--9--9--9--9----|--5----5--5--5--5--5----|---------------------------|
------------------------|------------------------|--3s--5----5--5--5s--3--3--|
--7----7--7--7--7--7----|--3----3--3--3--3--3----|---------------------------|
------------------------|------------------------|---------------------------|


  Q    E  Q    E   Q        E  Q    Q     Q    E     W
------------------------|-------------------------|-------------------|
------------------------|-----------8----10----8--|--L----------------|
--7----7--9----9--10----|--10--9------------------|-------------------|
------------------------|-----------5-----7----5--|--L----------------|
--5----5--7----7---8----|---8--7------------------|-------------------|
------------------------|-------------------------|-------------------|


  H        Q      Q        Q    E  Q    E  Q       E  Q    E  Q    Q
------------------------|-----------------------|-----------------------|
------------------------|-----------------------|-----------------------|
------------------------|-----------------------|-----------------------|
------------------------|--3----3--3----3--3----|--3--3----3--3----3----|
------------------------|--3----3--3----3--3----|--3--3----3--3----3----|
----------------/15\----|--1----0--1----0--1----|--0--1----0--1----0----|


                                                    Chorus
  Q    E  Q    E  Q       Q    E  E  E  E  Q        Q      E   Q     Q     E
-----------------------|------------------------|-----------------------------|
--3----3--3----3--3----|--5----5--5--5--5-------|--15---------14----------14--|
--5----4--5----4--5----|--6----6--6--6--6-------|--14-----14--------14----14--|
--5----5--5----5--5----|--7----7--7--7--7-------|-----------------------------|
-----------------------|------------------------|-----------------------------|
-----------------------|------------------------|-----------------------------|


  E   E   E   E   Q     Q        Q     E   Q     Q     E
-----------------------------|----------------------------|
--L------14------15----------|--15--------14----------15--|
--L--14------14--14----14----|--14----14--------14----14--|
-----------------------------|----------------------------|
-----------------------------|----------------------------|
-----------------------------|----------------------------|


  E   E   E   E   Q     Q        Q     E   Q     Q     E
-----------------------------|----------------------------|
--L------15------15----------|--15--------14----------14--|
--L--14------14--------14----|--14----14--------14--------|
-----------------------------|----------------------------|
-----------------------------|----------------------------|
-----------------------------|----------------------------|


  E   E   E   E   Q     Q        Q     E   Q     Q     E
-----------------------------|----------------------------|
--L------14------15----------|--15--------17----------15--|
--L--14------14--14----14----|--14----14--14----14----14--|
-----------------------------|----------------------------|
-----------------------------|----------------------------|
-----------------------------|----------------------------|


  E   E   E   E   Q     Q        Q     E   Q     Q     E
-----------------------------|----------------------------|
--L------14------14----------|--15--------14----------14--|
--L--14------14--------14----|--14----14--------14----14--|
-----------------------------|----------------------------|
-----------------------------|----------------------------|
-----------------------------|----------------------------|


  E   E   E   E   Q     Q        Q     E   Q     Q     E
-----------------------------|----------------------------|
---------14------15----------|--15--------14----------14--|
--L--14------14--14----14----|--14----14--------14----14--|
-----------------------------|----------------------------|
-----------------------------|----------------------------|
-----------------------------|----------------------------|


  E   E   E   E   Q     Q        Q     E   Q     E   E   E
-----------------------------|------------------------------|
--L------14------14----------|--15--------17--------14------|
--L--14------14--------14----|--14----14--14----14------14--|
-----------------------------|------------------------------|
-----------------------------|------------------------------|
-----------------------------|------------------------------|


   Q     E   Q     E   Q        Q     E   Q     E   E   E
----------------------------|------------------------------|
--14--------14--------14----|--15--------17--------14------|
--------14--------14--------|--14----14--14----14------14--|
----------------------------|------------------------------|
----------------------------|------------------------------|
----------------------------|------------------------------|


   Q     E   Q     E   E   E      W                    W
------------------------------|--------------------|--17----------------|
--14--------14--------14------|--15----------------|--15----------------|
--14----14--------14------14--|--14----------------|--14----------------|
------------------------------|--------------------|--------------------|
------------------------------|--------------------|--------------------|
------------------------------|--------------------|--------------------|


  Intro lead
  E          E  E  E  E  E  E  E     E  E  E  E  E  E  E  E
--5-------------------------5-----|--------------5-----------|
-------------2--3-----2--3-----2--|--3-----2--3-----2--3-----|
-------------------4--------------|-----4-----------------4--|
----------------------------------|--------------------------|
----------------------------------|--------------------------|
----------------------------------|--------------------------|


  E  E  E  E  E  E  E  E     E  Q    Q     E  Q       E  E  E  E  E  E  E  E
--------5-----------------|----------2-----L-------|--5-----------------5-----|
--2--3-----2--3-----2--3--|--L--5----5b----L--3----|-----2--3-----2--3-----2--|
-----------------4--------|------------------------|-----------4--------------|
--------------------------|------------------------|--------------------------|
--------------------------|------------------------|--------------------------|
--------------------------|------------------------|--------------------------|


  E  E  E  E  E  E  E  E     E  E  E  Q     E  Q       W
--------------5-----------|-----------2-----L-------|-------------------||
--3-----2--3-----2--3-----|--2--3--5--5b----L--3----|--L----------------||
-----4-----------------4--|-------------------------|-------------------||
--------------------------|-------------------------|-------------------||
--------------------------|-------------------------|-------------------||
--------------------------|-------------------------|-------------------||




Duration Legend
---------------
W - whole
H - half
Q - quarter
E - 8th
S - 16th
T - 32nd
X - 64th
. - note dotted
|-n-|  - n-tuplets


Tablature Legend
----------------
L - tied note
x - dead note
g - grace note
(n) - ghost note
> - accentuded note
NH - natural harmonic
AH - artificial harmonic
TH - tapped harmonic
SH - semi harmonic
PH - pitch harmonic
h - hammer on
p - pull off
b - bend
br - bendRelease
pb - preBend
pbr - preBendRelease
brb - bendReleaseBend
\n/ - tremolo bar dip
\n - tremolo bar dive
-/n - tremolo bar Release up
/n\ - tremolo bar inverted dip
/n - tremolo bar return
-\n - tremolo bar Release down
S - shift slide
s - legato slide
/ -  slide into from below or out of upwards
\ -  slide into from above or out of downwards
~ - vibrato
W - wide vibrato
tr - trill
TP - tremolo picking
T - tapping
S - slap
P - pop
< - fade in
^ - brush up
v - brush down
Tap to rate this tab
 
# A B C D E F G H I J K L M N O P Q R S T U V W X Y Z