Song name
# A B C D E F G H I J K L M N O P Q R S T U V W X Y Z

Nico Touches The Walls - Niwaka Ame Nimo Makezu tab

-------------------------------------------------------------------------------
                Niwaka Ame Nimo Makezu - Nico Touches The Walls
-------------------------------------------------------------------------------
Tabbed by: Gus

Tuning: EADGBE (Standard)

Standard tuning

S = Slide
H = Hammer on

e|----------------------------------------------------|
B|-----10s12--10--8-----------------------------------|
G|-------------------9h7------------------------------| x2
D|----------------------------------------------------|
A|----------------------------------------------------|
E|----------------------------------------------------|


e|----------------------------------------------------|
B|-----10s12--10--8-----------------------------------|
G|-------------------9----11b-11b-11b-11b-11b---------|
D|----------------------------------------------------|
A|----------------------------------------------------|
E|----------------------------------------------------|


e|----------------------------------------------------|
B|-----10s12--10--8-----------------------------------|
G|-------------------9h7------------------------------| x2
D|----------------------------------------------------|
A|----------------------------------------------------|
E|----------------------------------------------------|


e|----------------------------------------------------|
B|-----10s12--10--8-----------------------------------|
G|-------------------9----6b-6b-6b-6b-6b--------------|
D|----------------------------------------------------|
A|----------------------------------------------------|
E|----------------------------------------------------|

e|----------------------------------------------------|
B|-----10s12--10--8-----------------------------------|
G|-------------------9h7------------------------------| x2
D|----------------------------------------------------|
A|----------------------------------------------------|
E|----------------------------------------------------|


e|----------------------------------------------------|
B|-----10s12--10--8-----------------------------------|
G|-------------------9----11b-11b-11b-11b-11b---------|
D|----------------------------------------------------|
A|----------------------------------------------------|
E|----------------------------------------------------|


e|----------------------------------------------------|
B|-----10s12--10--8-----------------------------------|
G|-------------------9h7------------------------------| x2
D|----------------------------------------------------|
A|----------------------------------------------------|
E|----------------------------------------------------|

e|----------------------------------------------------|
B|-----10s12--10--8---------------10------------------|
G|-------------------9--6--9--11----------------------|
D|----------------------------------------------------|
A|----------------------------------------------------|
E|----------------------------------------------------|


This is as close as i could get to the song, if there should be any changes, let me know 
in the comments section!
Tap to rate this tab
# A B C D E F G H I J K L M N O P Q R S T U V W X Y Z