Guitaretab - guitar tabs
Song name
# A B C D E F G H I J K L M N O P Q R S T U V W X Y Z

Nico Vega - Beast Acoustic tab

-------------------------------------------------------------------------------
			    BEAST(Acoustic)  Nico Vega
-------------------------------------------------------------------------------
Tabbed by:jointhedarkside	
Email:

Tuning:Standard

so this is not the whole song just what i could make out being a total transcribe
noob. here is a link to the performance
http://www.youtube.com/watch?v=PFDFiD3iJck&NR=1
maybe someone could help out an complete or correcting the existing tab.



[ Tab from: http://www.guitaretab.com/n/nico-vega/182275.html ]
e|---------------------------------------------------------------------------|
B|---------------------------------------------------------------------------|
G|----7-7--5-7--5---5h7p5-----------7-7--5-7-5----~2-------------------------|
D|------------------------~7-------------------------------------------------|
A|-0--------------------------0----------------------------------------------|
E|---------------------------------------------------------------------------|

e|---------------------------------------------------------------------------|
B|---------------------------------------------------------------------------|
G|---7-7---5-7--5---5h7p5-----------5-----------5----------------------------|
D|------------------------~7---5-7-----~7---5-7---~7-------------------------|
A|-0-------------------------------------------------------------------------|
E|---------------------------------------------------------------------------|



| /  slide up
| \  slide down
| h  hammer-on
| p  pull-off
| ~  vibrato
| +  harmonic
| x  Mute note
===============================================================================
Related for Beast Acoustic tab