Song name
# A B C D E F G H I J K L M N O P Q R S T U V W X Y Z

Nico Vega - Gravity tab

First Tab, but please tell me if im wrong
add my band! myspace.com/overturebloom
my email: intotheflood26@gmail.com


Intro/Verse
|------------------   |          |------------------------------------------------|
|------------------   |          |--------------------- --[4x-------------9-------|
|----9---------9---   |          |-------9-------------9-changes to]---------9----|
|-11---11---11---11   | x4     |--11----11-------11---11------------11------------|
|0--0----0-0--0----0 |          |-----0--------------0-----------------0----------|
| ------------------  |           |10---------10-10---------------10-10-----------|

Chorus
|---------------------------|
|------------------99--66---|
|-----------7-77-7---88--55-| x4 [but on the last two, do not add the 9988...]
|-----------5-55-5----------|
|7-77-77-77-----------------|
|5-55-55-55-----------------|

Verse

Chorus

Bridge

|-------------------------------------|
|-------------------13-13-13-13-13-13-|
|-9-9---9---7/9---9--X--X--X--X--X--X-|
|11-11--11--9/11-11--11-11-11-11-11-11|
|-------------------------------------|
|-------------------------------------|

Then back to the chorus:)
Tap to rate this tab
 
# A B C D E F G H I J K L M N O P Q R S T U V W X Y Z