Song name
# A B C D E F G H I J K L M N O P Q R S T U V W X Y Z

Nico Vega - Beast tab

Beast by Nico Vega
from the album Nico Vega

Standard Tuning


MAIN RIFF
e--------------------------------------------------------------------------|
B--------------------------------------------------------------------------|
G-2---7-7--5-7--7p5-7p5-------------7-7--5-7-7p5----2~(p0)-----------------|
D-2-----------------------7~-----------------------------------------------|
A-0---------------------------0--------------------------------------------|
E--------------------------------------------------------------------------|

e--------------------------------------------------------------------------|
B--------------------------------------------------------------------------|
G-2---7-7---5-7--7p5-7p5-----------5-----------5---------------------------|
D-2------------------------7---5-7-----7---5-7---7~------------------------|
A-0------------------------------------------------------------------------|
E--------------------------------------------------------------------------|

BRIDGE
e------------------------------------------------|
B------------------------------------------------|
G------------------------------------------------|
D------------------5-------------------7---------|
A--7p5-7p5-7p5--3--5---7p5-7p5-7p5--3--7---------|
E------------------3-------------------5---------|

Any corrections please comment
Thanks
Tap to rate this tab
 
# A B C D E F G H I J K L M N O P Q R S T U V W X Y Z