Song name
# A B C D E F G H I J K L M N O P Q R S T U V W X Y Z

Nico Vega - Beast Acoustic tab

Nico Vega- Beast (Acoustic Version)
Standard Tuning

Key- p= Pull down, h= Hammer, ^= Bend up

Chorus (x3)
e|-------------------------------------------------------------------|
B|---3-3---3-3-3p1----3-3---3-1-------3-3---3-3-3p1-----1^--------1--|
G|----------------2-------------2------------------2-0h2---2---0h2--2|
D|-------------------------------------------------------------------|
A|-0----------------0---------------0----------------0---------------|
E|-------------------------------------------------------------------|

Solo 1
|-----------------------------------------------------------------------|
|---3-3p1--1---------3-3p1--------------3-3p1---------1---3-3-1--------1|
|--------2---2-2-2--------2-2-2-0h2-2--------2-2-2-0h2----------2-2-0h2-|
|-----------------------------------------------------------------------|
|-0----------------0------------------0-----------------0---------------|
|-----------------------------------------------------------------------|

Return to Chorus but (x2)

Solo 2
|----------------------------------------------------------------------|
|------1------------------1--------------1------------------1----------|
|---0h2--2-2-2-2p0-0---0h2-2----------0h2--2-2-2-2po-0---0h2--2--------|
|----------------------------0-0-0------------------------------0-0-0--|
|-0------------------0-------------3-0-----------------0--------------3|
|----------------------------------------------------------------------|

Return to chorus (x3)

Play A-string every 8 beats as song ends
Tap to rate this tab
# A B C D E F G H I J K L M N O P Q R S T U V W X Y Z