Song name
# A B C D E F G H I J K L M N O P Q R S T U V W X Y Z

Nico Vega - Medicine Man tab

----------------------------------------------------------------------------
                             Nico Vega - Medicine man
-------------------------------------------------------------------------------
Tabbed by:t0mka
E-mail:

Tuning:standard
                                           G                              4x
e|-----------------------------------------3----------------------------------|
B|-----------------------------------------3----------------------------------|
G|---12/17-17-17-17--17---7-7-7-2-2-5-5----4----------------------------------|
D|----0-------------------0-----0---0------5----------------------------------|
A|-----------------------------------------5----------------------------------|
E|-----------------------------------------3----------------------------------|
I have a tailormade hat for my sweetheart
That I wont take off no matter where I go
I have a nickname for my tailormade hat
That I call loyal and that's what it is so.
                                                                          2x
e|--------------------------------------3-------------------------------------|
B|--------------------------------------3-------------------------------------|
G|----17-17-17-17----2-2-5-5------------4-------------------------------------|
D|-------------------0---0--------------5-------------------------------------|
A|--------------------------------------5-------------------------------------|
E|--------------------------------------3-------------------------------------|
I don't need no medicine man to chop my wood.
I just need a man that's loyal, and wouldn't if he could.


e|---10----------3-----------------------------------------------------------|
B|---7-----------3-----------------------------------------------------------|
G|---7------5----4-----------------------------------------------------------|
D|---0------7----5-----------------------------------------------------------|
A|----------7----5-----------------------------------------------------------|
E|---------------3------------------------------------------------------------|
I've been down that road.
e|-------------------------------3-----------------------------------------3-|
B|-------------------------------3-----------------------------------------3-|
G|----17-17-17-17----2-2-5-5-----4---12/17-17-17-17--17---7-7-7-2-2-5-5----4--|
D|-------------------0---0-------5-----------------------------------------5-|
A|-------------------------------5-----------------------------------------5-|
E|-------------------------------3-----------------------------------------3-|
I ain't never gonna be your medicine man,
But I'm gonna be your lady of love.
And I ain't gonna nag you for nothing,
But I'll tell you if you ain't giving me enough.
                                                                            2x
e|--------------------------------------3-------------------------------------|
B|--------------------------------------3-------------------------------------|
G|----17-17-17-17----2-2-5-5------------4-------------------------------------|
D|-------------------0---0--------------5-------------------------------------|
A|--------------------------------------5-------------------------------------|
E|--------------------------------------3-------------------------------------|
I don't need no medicine man to chop me wood.
I just need a man that's loyal and wouldn't if he could.
                                                                  2x
e|---10----------3-----------------------------------------------------------|
B|---7-----------3-----------------------------------------------------------|
G|---7------5----4-----------------------------------------------------------|
D|---0------7----5-----------------------------------------------------------|
A|----------7----5-----------------------------------------------------------|
E|---------------3-----------------------------------------------------------|
I been down that road.
I been down that road.

     C                                                             2x
e|---8--------------3--------------------------------------------------------|
B|---8--------------3--------------------------------------------------------|
G|---9-------5------4--------------------------------------------------------|
D|---10------7------5--------------------------------------------------------|
A|---10------7------5--------------------------------------------------------|
E|---8--------------3--------------------------------------------------------|
I'm a lady of my word, I'm a lady of my word
But maybe you have heard that
I've been around the block a few times
Well I assure that would be a lie.
                                          to the end
e|---10----------3-----------------------------------------------------------|
B|---7-----------3-----------------------------------------------------------|
G|---7------5----4-----------------------------------------------------------|
D|---0------7----5-----------------------------------------------------------|
A|----------7----5-----------------------------------------------------------|
E|---------------3-----------------------------------------------------------|
I been down that road...




************************************

| /   slide up
Tap to rate this tab
# A B C D E F G H I J K L M N O P Q R S T U V W X Y Z