Song name
# A B C D E F G H I J K L M N O P Q R S T U V W X Y Z

Nicolas Vallet - Prelude Xiv tab

Prйlude XIV - Nicolas Vallet (1583-1642)
from "Le secret des muses"  -  1615-16

TablEdited by Hamilcar

Tuning: E A D F# B E   -   Time Signature: 4/4 


 |       |        |       |        |       |        |       |        
|------0-2-------|----------------|----------------|--3-2---0-------|
|3-------3-----2-|0---------------|--3-2-----0-----|--------------3-|
|3-------3-------|------3-1-----0-|------------3---|------3---1-0---|
|0---0-----------|----------------|2---------------|0---------------|
|----------4-2---|--0-------------|0---------------|----------------|
|----------------|----3-----2-0---|------3-2-----0-|----------------|

 |       |        |       |        |       |        |       |        
|----------------|----------------|--------2-----0-|----------------|
|--3-2---3---0---|2---3-------2---|3-2-3-0-----2---|3-2-0-----0-----|
|------------1---|3---1-0-----3-1-|0---------------|0---0---4-----4-|
|2-----2-0-0-----|2-------2-0-2---|----------------|------2---0-----|
|0---------------|0-----------0---|2---------2-1---|2-0---------4---|
|------3-2---3-0-|----------------|----------------|----3---2-------|

 |       |        |       |        |       |        |       |        
|----------------|--0-2-3-5---3-2-|0-2-3-2-0-------|----------------|
|0-----------0-2-|3---------------|----------3-2---|3---------------|
|--3-1-0---0-1---|3---------0-1---|3---0---1---3-1-|0---0---3-------|
|--------2-------|0-----2---------|----------------|--2---0-0-----0-|
|2-----0---------|----------------|----------------|----------------|
|--------3-2-0---|----------------|----------------|----------0-2---|

 |       |        |       |               
|------------0---|2---------------||
|0-----2-3---2---|3---------------||
|1-------3---1---|3---------------||
|0-------0-------|0---------------||
|----------------|----------------||
|3-2-3---2---0---|----------------||


Tap to rate this tab
# A B C D E F G H I J K L M N O P Q R S T U V W X Y Z