Guitaretab - guitar tabs
Song name
# A B C D E F G H I J K L M N O P Q R S T U V W X Y Z

Nicolas Vallet - Prelude Xiii tab

Prйlude XIII - Nicolas Vallet (1583-1642)
from ?

TablEdited by Hamilcar

Tuning - E A D F# B E     Time Signature - 4/4 


 |       |       |       |        |       |       |       |        
|------------------------0-------|2-----------0---2-------3-------|
|3---------------3---------------|3-----------------------0-------|
|0-----------3---0-------1-------|3---------------3-------1-------|
|0-------------------------------|0-------------------------------|
|--------------------------------|--------------------------------|
|--------------------------------|--------------------------------|

 |       |       |       |        |       |       |       |        
|5-------3---2---0---2-----------|--------------------------------|
|3-------0-------2-------3-------|2-------0---2---3---------------|
|0-----------------------5-------|3---------------1---------------|
|0-------------------------------|2---------------0---------------|
|--------------------------------|0-------------------------------|
|--------------------------------|----------------3-------2-------|

 |       |       |       |        |       |       |       |        
|0---------------2-------0-------|----------------0---------------|
|0---------------3---------------|3-------2---3---0-------3-------|
|1---------------3-------1-------|0---------------1-------0-------|
|----------------0---------------|0-------------------------------|
|--------4-----------------------|--------------------------------|
|0-------------------------------|2---------------3---------------|

 |       |       |       |        |       |       |       |        
|------------5---3-------2-------|0-------------------------------|
|2---------------0---------------|2-------3-------2-------0-------|
|3-----------------------3-------|3-------0-----------------------|
|2-------------------------------|----------------2-------0-------|
|0-------------------------------|0-------------------------------|
|--------------------------------|--------------------------------|

 |       |       |       |        |       |       |       |        
|--------------------------------|--------------------------------|
|2-------------------------------|0---2---3---------------2-------|
|3-----------3---1-------0-------|1-------0---------------3---1---|
|2-------------------------------|2---------------2-------2-------|
|0---------------2-------0-------|------------------------0-------|
|--------------------------------|3-------2-------3---------------|

 |       |       |       |        |       |       |       |        
|--------------------------0-2-3-|5---------------3---------------|
|3---2-0-------------0-2-3-------|------------------------0---2---|
|3-------3-1-0-----3-------------|0---1---3---0---1---3-----------|
|0-------------2-0---------------|--------------------------------|
|--------------------------------|--------------------------------|
|--------------------------------|--------------------------------|
[ Tab from: http://www.guitaretab.com/n/nicolas-vallet/289335.html ]
 |       |       |       |        |       |       |       |        
|2-----------------------0-------|0-------------------------------|
|3-------2---0---------------3---|------------------------3---2---|
|----------------3---------------|--------1---0-----------0-------|
|--------------------------------|----------------2---------------|
|--------------------------------|--------------------------------|
|--------------------------------|--------------------------------|

 |       |       |       |        |       |       |       |        
|--------------------------------|--------------------------------|
|0-------2-------3-------2---0---|--------0-------2-------3-------|
|1-------0-----------------------|3-------------------------------|
|------------2---0-------2-------|--------------------------------|
|--------------------------------|----------------0-------2-------|
|--------------------------------|2-------3-----------------------|

 |       |       |       |        |       |       |       |        
|0-------------------------------|--------------------------------|
|--------3---2---0-----------2---|3-------------------2---0---2---|
|--------------------0---1-------|----0---------------------------|
|--------0-------2---------------|--------2---0---2---------------|
|4-------------------------------|--------------------------------|
|--------------------------------|--------------------------------|

 |       |       |       |        |       |       |       |        
|------------------------0-------|--------2---------------3-------|
|--------3-----------0-----------|----2---------------3-----------|
|----3-----------1---------------|3-----------0---5---------------|
|4-----------0---------------2---|----------------------------5---|
|--------------------------------|--------------------------------|
|--------------------------------|--------------------------------|

 |       |       |       |        |       |       |       |        
|----2---0-----------------------|--------------------------------|
|------------3---2-------3-------|----2-0-2-----------0---0-------|
|3-------------------1-------0---|------------0---------3---------|
|--------------------------------|2---------------0-----------2---|
|--------------------------------|0-------------------------------|
|--------------------------------|----------------3---------------|

 |       |       |       |        |       |       |       |        
|--------------------------------|--------------------------------|
|2-------3-----------2-0-2-------|3-------0-----------------------|
|0-------3---------------3---1---|3-------1-------3-------1-------|
|--------0-------2---------------|4-------0-------0-------0-------|
|----------------0---------------|5-----------------------2-------|
|2---0---------------------------|--------3-------2-------3-------|

 |       |       |       |         
|--------------------------------||
|3-------------------------------||
|3-------------------------------||
|4-------------------------------||
|5-------------------------------||
|--------------------------------||

Related for Prelude Xiii tab
Prelude Xiii chords by Nicolas Vallet