Song name
# A B C D E F G H I J K L M N O P Q R S T U V W X Y Z

Nicolas Vallet - Prelude X tab

Prelude X - Nicolas Vallet (1583-1642)
from ?

TablEdited by Hamilcar

Tuning - E A D F# B E     Time Signature - 4/4 


 |       |       |       |        |       |       |       |        
|7-------5---4---2---0-----------|--------0-----------------------|
|0-----------------------4---2---|0-------------------4-2-4-------|
|0-------------------------------|----------------0---------------|
|--------------------------------|2-------------------------------|
|--------------------------------|------------0---2---------------|
|7-------------------------------|4-------------------------------|

 |       |       |       |        |       |       |       |        
|0-------4-------4-------2-------|0-------2---4---5---------------|
|0---------------5-------4-------|2-------0-------2-------4-------|
|2-------------------------------|--------------------------------|
|--------------------------------|----------------4---------------|
|--------------------------------|--------------------------------|
|0-------------------------------|--------------------------------|

 |       |       |       |        |       |       |       |        
|4-------2-------0---------------|--------0-------0---------------|
|--------0-------0---------------|----------------0-------3-------|
|------------------------3-------|2---------------2---------------|
|2-------------------------------|2-------------------------------|
|--------------------------------|--------------------------------|
|----------------4-------2-------|0-------------------------------|

 |       |       |       |        |       |       |       |        
|--------5-------5-------4-------|2---------------4-------2-------|
|2---------------2-------5-------|0---------------0-------0-------|
|3-------------------------------|0-------------------------------|
|2---------------4-------2-------|1---------------2-------1-------|
|0-------------------------------|--------2-----------------------|
|--------------------------------|--------------------------------|

 |       |       |       |        |       |       |       |        
|0-----------------------2---0---|------------------------0-------|
|0-------------------------------|4-------0-------------------4---|
|--------4---2---4---------------|0-------------------------------|
|--------------------------------|----------------2---------------|
|4-------------------------------|2-------------------------------|
|--------------------------------|----------------4---------------|

 |       |       |       |        |       |       |       |        
|--------0-------2---------------|0-------------------------------|
|2---4---------------4-2-4-------|0-------4---2---0---------------|
|3---------------3---------------|2-----------------------3---2---|
|--------------------------------|--------------------------------|
|0-------------------------------|------------------------0-------|
|------------4---2---------------|0-------2-------4---------------|

 |       |       |       |        |       |       |       |        
|--------------------------------|0-------------------------------|
|--------0-----------------------|------------4---2-------0-------|
|0-----------3---2---3---2---0---|--------------------3-------2---|
|1---------------2---------------|2---1-------------------2-------|
|2-------------------------------|--------4---2---0---------------|
|----------------0---------------|--------------------------------|

 |       |       |       |        |       |       |       |        
|--------------------------------|--------------------------------|
|----0---2-------0---------------|----------------0-------4-------|
|3---2---3-------2---0---3---2---|0---2-----------0---------------|
|4-------------------------------|--------2-------1---------------|
|------------0---2-------4-------|0---------------2---------------|
|--------------------------------|--------------------------------|

 |       |       |       |        |       |       |       |        
|0-------2-------4---------------|--------2---0-----------0-------|
|2-------4-------5---------------|----------------4-------0---4---|
|----------------------------0---|2-------3-------5---3---2-------|
|------------------------2-------|--------------------------------|
|--------------------------------|--------------------------------|
|--------------------------------|--------------------------------|

 |       |       |       |        |       |       |       |        
|----------------0---------------|--------0---------------2-------|
|2-------4-------0-------4---2---|0-----------4---2---------------|
|3-------0---------------0-------|2-------------------3-----------|
|----------------2---------------|--------------------------------|
|--------------------------------|----------------0---------------|
|--------------------------------|--------4-----------------------|

 |       |       |       |        |       |       |       |        
|--------4-------0-------5-------|2---------------0-------7-------|
|4---0---------------2-----------|--------0-------0---------------|
|--------------------------------|------------3---2---------------|
|--------------------------------|1---------------2---------------|
|2---------------4---------------|--------------------------------|
|--------------------------------|--------------------------------|

 |       |       |       |        |       |       |       |        
|4-------5-------2-------4---2---|0-------2---0-------------------|
|5-------2-------4-------0-------|2---0-----------4-------5---4---|
|--------------------------------|--------4-------5---3---2-------|
|--------------------------------|--------------------------------|
|--------------------------------|--------------------------------|
|--------------------------------|--------------------------------|

 |       |       |       |        |       |       |       |        
|--------0-------0---------------|0------------------------------||
|2---4-------------------4-------|0------------------------------||
|3-------2---3---0-------0-------|2------------------------------||
|--------------------2-----------|2------------------------------||
|----------------2---------------|2------------------------------||
|--------------------------------|0------------------------------||

Tap to rate this tab
 
# A B C D E F G H I J K L M N O P Q R S T U V W X Y Z