Song name
# A B C D E F G H I J K L M N O P Q R S T U V W X Y Z

Nicolas Vallet - Fortune Helas Pourquoy tab

Fortune hйlas pourquoy - Nicolas Vallet (1583-1642)
from "Le secret des muses"  - Livre I, folio 49-50 (1615)

TablEdited by Hamilcar

Tuning: E A D F# B E   -   Time Signature: 4/4 

 |       |       |       |        |       |       |       |        
|--------------------------------|----------------0-------0-------|
|----------------0-----------2---|3-------3-------2-------2-------|
|--------------------------------|0-------0-------3-------3-------|
|--------------------------------|--------------------------------|
|--------------------------------|2---------------0---------------|
|--------------------------------|--------------------------------|

 |       |       |       |        |       |       |       |        
|2-----------------------0-------|--------------------------------|
|3---------------3-----------3---|2-------0-------0---------------|
|3-------------------------------|0-------1-------1-------4-------|
|--------0-------0---------------|------------------------4-------|
|--------------------------------|--------------------------------|
|--------------------------------|2-------3-------0-------2-------|

 |       |       |       |        |       |       |       |        
|--------------------------------|----0---2-------0---2---3---0---|
|0---------------0-------0---2---|3-----------3-------------------|
|0-------0-------0---------------|0-------------------------------|
|0-------------------------------|--------------------------------|
|2-------2-------2---------------|2---------------0---------------|
|--------------------------------|------------------------0-------|

 |       |       |       |        |       |       |       |        
|2---0---3---2---0---------------|--------------------------------|
|0-------------------3---2---0---|2-----------------------2-------|
|0-------------------------------|4-----------------------0-------|
|--------------------------------|4-------2---0-------------------|
|2-------------------------------|----------------4---2-----------|
|--------------------------------|------------------------2-------|

 |       |       |       |        |       |       |       |        
|------------------------3-------|2-------2-------0-------0-------|
|0---------------0-----------2---|--------0-----------------------|
|0---------------0---------------|3---------------1-------3-------|
|----------------1---------------|0-------------------------------|
|2-------2-----------------------|----------------3---------------|
|--------------------------------|--------------------------------|

 |       |       |       |        |       |       |       |        
|--------------------------------|0---2---3-------3-------2-------|
|4-------0---------------2---4---|----------------3-----------3---|
|0-------------------------------|----------------3---------------|
|--------------------------------|2---------------0---------------|
|2---------------2---------------|--------3-----------------------|
|--------------------------------|--------------------------------|

 |       |       |       |        |       |       |       |        
|3-----------------------3-------|2-------2-------0-------0-------|
|3-------------------------------|0---2---3-----------0---1-------|
|5-----------------------1---3---|----------------3---------------|
|--------5-----------------------|--------------------------------|
|--------------------------------|--------------------------------|
|----------------3---------------|--------------------------------|

 |       |       |       |        |       |       |       |        
|------------0---2---3---5---3---|2-------0-------0---------------|
|4---2---4-----------------------|0-------0-------2-------4-------|
|0-------------------------------|0---------------3-------0-------|
|--------------------------------|--------------------------------|
|2-----------------------0-------|2---------------0-------2-------|
|--------------------------------|--------4-----------------------|

 |       |       |       |        |       |       |       |        
|0-----------------------3-------|2---------------0---------------|
|0-----------------------2-------|3-------------------------------|
|2-------------------------------|3-------------------0---1---3---|
|--------2---------------2-------|0---2---4---0---2---------------|
|--------------------------------|--------------------------------|
|----------------0---------------|--------------------------------|

 |       |       |       |        |       |       |       |        
|------------0---2---------------|0-----------------------2-------|
|4---2---4-----------0---2---4---|----3---1---0-----------3-------|
|0-------------------------------|----------------3---1---3-------|
|--------------------------------|------------------------0-------|
|2-------------------------------|3-------------------------------|
|--------------------------------|--------------------------------|

 |       |       |       |        |       |       |       |        
|3---------------3---------------|2---5---3---2---0---3---2---0---|
|0---------------0---------------|--------------------------------|
|1---------------1---------------|--------------------------------|
|--------0-----------------------|0-------------------------------|
|--------------------0---2---4---|----------------3-------0-------|
|3-------------------------------|--------------------------------|

 |       |       |       |        |       |       |       |        
|------------0---2---------------|--------0-----------------------|
|4---2---4---------------0-------|2---4-----------0-------4-------|
|0-------------------------------|----------------0-------0-------|
|--------------------------------|--------------------------------|
|2-------------------------------|0---------------2---------------|
|------------------------4-------|--------------------------------|

 |       |       |       |        |       |       |       |        
|0-------------------------------|----------------0-------0-------|
|0-----------------------0---2---|3-------3---------------2-------|
|2-------------------------------|5-------5-------1-------3-------|
|--------2-----------------------|--------5-------2---------------|
|--------------------------------|--------------------------------|
|----------------0---------------|--------------------------------|

 |       |       |       |        |       |       |       |        
|2-----------------------0-------|--------------------------------|
|3---------------------------3---|2-------0-------0---------------|
|3-------------------------------|4-------2---4---5-------4-------|
|0---------------0---------------|4-----------------------4-------|
|--------2---4-----------4-------|--------------------------------|
|--------------------------------|--------------------------------|

 |       |       |       |        |       |       |       |        
|--------------------------------|----------------0-------0-------|
|0-----------------------0---2---|3-------3-----------3-----------|
|0-------3---1---0---------------|0-----------------------4-------|
|--------------------2---0-------|--------------------------------|
|2---------------------------4---|2---0-------------------4-------|
|--------------------------------|--------3---2---0---------------|

 |       |       |       |        |       |       |       |        
|2-----------------------0-------|--------------------------------|
|0---------------------------3---|2-------0-------0---------------|
|0-------3---1---0---------------|0-----------------------4-------|
|0---------------0---------------|----2---0---2-----------4-------|
|--------4-----------------------|----------------4---2-----------|
|------------------------0-------|2-----------------------2-------|


 |       |       |       |        |       |       |       |        
|------------------------3-------|2-------2-------0-------0-------|
|0-------------------------------|0-----------0---1---0-----------|
|--------1-------0---------------|----3-----------------------3---|
|------------------------2-------|--------1-------2---------------|
|2-------------------------------|------------------------3-------|
|--------------------------------|--------------------------------|

 |       |       |       |        |       |       |       |        
|--------------------------------|0-------3-----------2-0-2-------|
|4-----------------------4-------|--------0---1-----------3---1---|
|----0---3---1---0-------0-------|1---3-----------3---------------|
|--------------------2-----------|----------------0---------------|
|2---------------2---------------|--------------------------------|
|--------------------------------|--------------------------------|

 |       |       |       |        |       |       |       |        
|----3-------------------3-------|2---------------0---------------|
|0-----------------------0---2---|3-------2---3-----------0---2---|
|--------1-------1---3-----------|--------3---------------2-------|
|------------2-------------------|0---2---4-----------0---2-------|
|--------------------------------|----------------4---------------|
|--------------------------------|--------------------------------|

 |       |       |       |        |       |       |       |        
|--------------------2---0-------|--------0-----------------------|
|3-------------------3---2---3---|2---3-------------------4-------|
|0---------------0-----------5---|3-------1---3-1-0-------0---3---|
|--------0---2-------------------|--------------------0-----------|
|2---4-----------2---------------|------------------------2-------|
|--------------------------------|--------------------------------|

 |       |       |       |        |       |       |       |        
|0-----------------------3-------|3-------2-------0-------0-------|
|0-------------------------------|0-------------------------------|
|1-----------------------1---3---|----3---0---1---3---1-------1---|
|--------2-----------------------|------------------------2-------|
|--------------------------------|--------------------------------|
|----------------0---------------|--------------------------------|

 |       |       |       |        |       |       |       |        
|--------------------------------|0-------3-----------2-0-2-------|
|4---------------0-------4-------|----------------1-------3---1---|
|----0---2---4-------------------|--------------------------------|
|--------------------------------|2---0-------2-----------0-------|
|2-------------------0-------2---|--------2-------0---------------|
|------------------------2-------|0-------------------------------|

 |       |       |       |        |       |       |       |        
|--------0---2---3-------3-------|--------2---------------0-------|
|0---3---------------------------|----3---------------2-----------|
|1-------------------0---1-------|5-----------0---3---------------|
|----------------------------2---|----------------------------2---|
|--------------------------------|--------------------------------|
|3-------------------------------|--------------------------------|

 |       |       |       |        |       |       |       |        
|--------------------------------|--------0-----------2-----------|
|----0---3---------------0-------|----2-------------------4-------|
|1-------------------1-----------|----3---1-------0---------------|
|--------------------------------|--------------------------------|
|----------------2---------------|0---------------2-----------0---|
|------------3---------------4---|------------0-------------------|


 |       |       |       |        |       |       |       |        
|0-------------------------------|----------------0-------0-------|
|0-------1-------0-------0---2---|3-------3---------------2-------|
|--------3---0---2---------------|----0-------1-----------3-------|
|--------2-------2---------------|--------------------2-----------|
|--------0-----------------------|--------------------------------|
|4---0-----------0---------------|--------------------------------|

 |       |       |       |        |       |       |       |        
|2-----------------------0-------|--------------------------------|
|----3-----------------------3---|2-------0-----------0---2-------|
|--------0---1---3---0-----------|----0-------2---4-------0-------|
|0-------------------------------|----------------4---------------|
|------------------------4---2---|1-------2-----------------------|
|--------------------------------|------------------------2-------|

 |       |       |       |        |       |       |       |        
|--------------------------------|----------------0-------0-------|
|0-----------------------0---2---|3-------3---------------0---2---|
|----0---1-----------------------|0-------0-----------3-----------|
|------------2---1---------------|--------------------------------|
|2-------------------2-----------|----2---------------------------|
|--------------------------------|--------2---3---0---2---3---0---|

 |       |       |       |        |       |       |       |        
|2---------------2-------0-------|--------------------------------|
|3---------------------------3---|2-------0-------0---------------|
|----------------0---1---3---5---|4-----------0---1---0---4-------|
|--------0---2-------------------|4---2---1-------2---0---2-------|
|2---4---------------------------|------------------------4-------|
|--------------------------------|--------------------------------|

 |       |       |       |        |       |       |       |        
|----------------0---2---3-------|2-------2-------0-------0-------|
|0-------2---4-----------0---2---|3---2---0---------------0-------|
|0-------------------------------|------------3---2---3-----------|
|--------------------------------|------------------------2-------|
|2-------------------------------|--------------------------------|
|--------------------------------|--------------------------------|

 |       |       |       |        |       |       |       |        
|----0---2---0-------0-----------|0---2---3-------3-------2-------|
|4---------------4-------4-------|----------------1---0---3---1---|
|0-------3---1---0-------0-------|------------------------3-------|
|--------------------2-----------|2-----------0-----------0-------|
|2---------------2---------------|----------------3---------------|
|--------------------------------|--------------------------------|

 |       |       |       |        |       |       |       |        
|3-----------------------3-------|2-------2-------0-------0-------|
|0-------------------------------|----0-------0-------------------|
|1-------------------------------|--------3-----------3---1---3---|
|--------------------0---2-------|0-------------------------------|
|--------0---2---3-----------3---|----------------3---------------|
|----3---------------------------|--------------------------------|

 |       |       |       |        |       |       |       |        
|------------0---2---------------|--------0-------0---------------|
|4---2---4---------------0-------|2-----------------------4-------|
|0-------0---1---0---------------|----------------3---1---0-------|
|----2---------------2---1---2---|--------------------------------|
|2-------------------------------|4---2---0---------------2-------|
|--------------------------------|------------3---2---0-----------|

 |       |       |       |        |       |       |       |        
|0-----------------------3-------|2---0-2-----2---0-----0-----0---|
|0---3-2-0---------------0-------|--------4-----------3---2-------|
|2---------3-2-0-----------------|0-------5---------------3-------|
|----------------2---------------|----------------2---------------|
|--------------------------------|--------------------------------|
|0-------------------------------|--------------------------------|

 |       |       |       |        |       |       |       |        
|--------------------------------|0-----0-----0---2---0-2-----2---|
|4---2-4-0-----------------------|----3---1-------3-------3---1---|
|0-----------1---0-----0-----0---|--------------------------------|
|--------------------2---1-------|2---------------0---------------|
|2-------------------------------|3-------------------------------|
|--------------------------------|--------------------------------|

 |       |       |       |        |       |       |       |        
|3---2-0-----------------7---5-3-|2-------5---3-2-0-------3---2-0-|
|0-------3-1-0-------------------|0-------------------------------|
|1-------------3-1---------------|----3-1-0-------3---1-0---------|
|--------------------------------|------------------------2-------|
|--------------------------------|--------------------------------|
|3-------------------------------|--------------------------------|

 |       |       |       |        |       |       |       |        
|----------------------------0---|--------0-------0---------------|
|4-----------------------0-----3-|2-----------------------4-------|
|0---------------0---1-3---------|----3-1-3-----0-1---3-1-0-------|
|--------------------------------|------------2-------------------|
|2---0-----------2---------------|0-------3-------2-------2-------|
|------3-2---0-----------4-------|--------------------------------|

 |       |       |       |        |       |       |       |        
|0-------------------------------|----------------0---------------|
|0-----------------------0---2---|3-------------------------------|
|2-------------------------------|1---0-------------0-1-0---------|
|--------2-----------------------|------2-0---4---2-------2-0-----|
|--------------------------------|----------------------------4---|
|----------------0---------------|--------------------------------|

 |       |       |       |        |       |       |       |        
|2-----------------------0-------|--------------------------------|
|0-----------------------0---3---|2---3---0-------0---------------|
|0---3-2-0---2---4---0-----------|4-------1---0---1-------4-------|
|------------------------2-------|4-------------------2---4-------|
|2-------------------------------|--------------------------------|
|--------------------------------|--------------------------------|

 |       |       |       |        |       |       |       |        
|--------0-2-3-5-7-------0-------|----------0-2---0-------------0-|
|0---2-4-------------0-------2---|3-2-0-2-3-----3---------0-2-3---|
|0-------------------------------|------------------0-1-3---------|
|--------------------------------|----------------2---------------|
|2-------------------------------|2-------------------------------|
|--------------------------------|--------------------------------|

 |       |       |       |        |       |       |       |        
|2-----------------0-2---0-------|--------------------------------|
|------------0-2-3-----3---3-2-0-|2-0-2---0-----------------------|
|------0-1-3---------------------|------4-----1-0---------4-------|
|0---2---------------------------|4---------------2-4-5-2-4-------|
|--------------------------------|--------------------------------|
|--------------------------------|--------------------------------|


 |       |       |       |        |       |       |       |        
|------------------------3-------|2-------2-------0-------0-------|
|0-----------------------0-------|0-------------------------------|
|0---3-1-0-----------------------|--------------------3---1-------|
|----------2-0-------------------|----2---1-------2-----------2---|
|2-------------4-2-0-------------|2-----------2-------------------|
|--------------------3-2-0-------|--------------------------------|

 |       |       |       |        |       |       |       |        
|----0---------------------------|0-------3-----------3---2-------|
|0-------4---0-------------------|----------------3-----------3---|
|0-------------------1---0-------|----3---1-----------------------|
|----------------1-----------1---|2-----------2---0---------------|
|2---------------2---------------|3-------------------------------|
|--------------------------------|--------------------------------|

 |       |       |       |        |       |       |       |        
|3---------------0---7---3-------|----5---2-------0---------------|
|0---3---0-------------------5---|3-----------3-------------------|
|------------1-------------------|3-------------------3---1-------|
|--------------------------------|0---------------------------2---|
|--------------------------------|----------------3---------------|
|3---------------0---------------|--------------------------------|

 |       |       |       |        |       |       |       |        
|--------------------2-----------|--------0-----------------------|
|4-----------------------4---0---|2-------0---------------4-------|
|----0-------------------0---2---|3-------------------3-------5---|
|--------1-----------------------|------------------------4-------|
|2-----------2---2---------------|----0-----------2---------------|
|--------------------------------|--------3---0-------------------|

 |       |       |       |        |       |       |       |        
|0-----------------------3-------|2---0---2-------0-------0-------|
|0-----------------------0---2---|4-------------------------------|
|2-------------------------------|----------------------------3---|
|--------2---------------2-------|--------1-------2---0-----------|
|--------------------------------|2---4-------2-----------3-------|
|----------------0---------------|--------------------------------|

 |       |       |       |        |       |       |       |        
|--------------------------------|0---2---3-------3-------2-------|
|4---0-----------------------4---|5---3---1---0-----------3---1---|
|0-------0---1---0-------0-------|----------------3---1-----------|
|--------------------2-----------|----------------0---------------|
|2---------------2---------------|--------------------------------|
|--------------------------------|--------------------------------|

 |       |       |       |        |       |       |       |        
|3---2-0-----------------3-------|2-------2-------0-------0-------|
|0-------3-1-0-------------------|0---0-1-0-1-3-0-1-0-------0-----|
|1-------------3-1-3-1-0---0-1-3-|--3-----------------3-2-3---1-3-|
|------------------------2-------|--------------------------------|
|--------------------------------|--------------------------------|
|--------------------------------|--------------------------------|

 |       |       |       |        |       |       |       |        
|--------------------------------|--------0-------0---------------|
|4-----------------------0-2-3-0-|2---------------0-------4-------|
|5---3-1-0---------0-2-4---------|----------------0-----------3---|
|----------2-0-------------------|--------------------------------|
|--------------4-2---------------|0-------------0-2---------------|
|------------------------3-------|----3-2-0-2-3-------------------|

 |       |       |       |        
|0------------------------------||
|0------------------------------||
|2------------------------------||
|2------------------------------||
|2------------------------------||
|0------------------------------||

Tap to rate this tab
# A B C D E F G H I J K L M N O P Q R S T U V W X Y Z