Song name
# A B C D E F G H I J K L M N O P Q R S T U V W X Y Z

Nicolas Vallet - Boerinnekin tab

Boerinneken - Nicolas Vallet (1583-1642)
from "Le Secret des Muses" - Livre I, folio 45-46 (1615)

TablEdited by Hamilcar
Tuning - E A D F# B E     Time Signature - 4/4 

 |       |       |       |        |       |       |       |        
|--------------------------------|--------------------------------|
|------------------------3-------|3-------3-------1-----------0---|
|--------------------------------|3---------------3---------------|
|--------------------------------|3---------------2---------------|
|--------------------------------|5---------------0---------------|
|--------------------------------|--------------------------------|

 |       |       |       |        |       |       |       |        
|--------1-------0---------------|----------------------------0---|
|------------------------3-------|----2-0-2-------3-------3-------|
|3---------------3-------3-------|----------------3---------------|
|--------0---------------0-------|2---------------0---------------|
|----------------4---------------|0-------------------------------|
|--------------------------------|--------------------------------|

 |       |       |       |        |       |       |       |        
|1-------3-------5-------5-------|3-------1-------0---------------|
|3-----------------------3-------|3-------3-------3-------2-------|
|------------------------3-------|4-------3-------3-----------1---|
|0-----------------------0-------|--------------------------------|
|--------2-------4---------------|--------0-------0---------------|
|--------------------------------|3-------------------------------|

 |       |       |       |        |       |       |       |        
|--------------------------------|--------------------------------|
|3-------------------------------|--------0-------1-----------3---|
|3-----------------------3-------|3-------2-------3---------------|
|4-----------------------3-------|2---------------2---------------|
|5-----------------------5-------|3-------2-------0---------------|
|--------------------------------|--------------------------------|

 |       |       |       |        |       |       |       |        
|--------------------------------|--------------------------------|
|1-------------------------------|--------------------------------|
|--------3-------4-------3-------|1-----------------------3-------|
|2-------3-------0-------3-------|3-------2-------3---------------|
|--------------------------------|3-------------------------------|
|--------------------------------|----------------1---------------|

 |       |       |       |        |       |       |       |        
|--------------------------------|--------------------------------|
|------------------------3-------|3---1---0-----------------------|
|3---1---------------------------|1-----------3---1-------1-------|
|0-------3---2---0---------------|------------------------2-------|
|--------------------------------|--------------------------------|
|----------------2---------------|3-----------2---0---------------|

 |       |       |       |        |       |       |       |        
|----------------0-------1-------|0-------------------------------|
|1---0---1---3---------------0---|--------3-------2-----------0-2-|
|3-------------------3-----------|1-------------------------------|
|2-----------------------0-------|--------3-------2---------------|
|0-----------2---4---------------|----------------0---------------|
|--------------------------------|3-------------------------------|

 |       |       |       |        |       |       |       |        
|--------------------------------|--------------------------------|
|3-------------------------------|--------0-------1-----------3---|
|------------------------3-------|3-----------2---3---------------|
|--------0-------0-------3---2---|0---------------2---------------|
|--------------------------------|----3---2-------0---------------|
|--------------------------------|--------------------------------|


 |       |       |       |        |       |       |       |        
|--------------------------------|--------------------------------|
|1-------------------------------|--------------------------------|
|--------3-------4-------3-------|1-----------------------3-------|
|--------3-------0---2---3-------|----------------3-----------2---|
|------------------------0-------|1-------3-----------------------|
|0-------1-------3---------------|----------------1---------------|

 |       |       |       |        |       |       |       |        
|--------------------------------|--------------------------------|
|------------------------3-------|3---1---0-----------------------|
|3---1-------------------1-------|0-----------3---1-------1-------|
|0-------3---2---0---------------|0---------------2---0-----------|
|------------3---2---0-----------|------------------------3---2---|
|------------------------3-------|--------3-----------------------|

 |       |       |       |        |       |       |       |        
|----------------0-------1-------|0-------------------------------|
|1---0---1---3---------------0---|1---0---3-----------2-0-2-------|
|--------------------3-----------|--------3---1---3---------------|
|------------------------0-------|2-------3-----------------------|
|0-------0---2---4---------------|------------------------0-------|
|----4---------------------------|--------------------------------|

 |       |       |       |        |       |       |       |        
|--------------------------------|--------------------------------|
|3-----------------------3-------|3-------3-------1---------------|
|3-------------------------------|------------1-------3---1-------|
|0---------------------------3---|0---2---3-------------------2---|
|--------------------------------|----------------0---------------|
|--------------------------------|--------------------------------|

 |       |       |       |        |       |       |       |        
|--------1-------0---------------|----------------------------0---|
|------------------------3-------|----2-0-2-----------3-----------|
|3-----------3-------1---3-------|------------1-3-4-------1-------|
|3---2---0---------------3-------|2-------------------------------|
|----------------4-------5-------|0-------------------------------|
|--------------------------------|--------------------------------|

 |       |       |       |        |       |       |       |        
|1-------3-------5-------5-------|3-------1---3---0-------0-------|
|----3---1---0---------------0---|5-------3-----------3---2-------|
|----------------3---1---3-------|6---------------3-------3-------|
|0-------2-------3---------------|--------------------------------|
|--------------------------------|------------------------0-------|
|--------------------------------|--------------------------------|

 |       |       |       |        |       |       |       |        
|--------------------------------|--------------------------------|
|3-------------------------------|--------0-------1-----------3---|
|3-----------------------3-------|3-------------------------------|
|0---------------------------3---|----0---------------3---2---0---|
|--------------------------------|--------2-------0---------------|
|--------------------------------|------------4-------------------|

 |       |       |       |        |       |       |       |        
|--------------------------------|--------------------------------|
|1-------------------------------|--------------------------------|
|--------3-------4-------3-------|1-----------------------3-------|
|2---0-------0-------2---3-------|0---------------3---------------|
|--------4-----------------------|------------4---5---0-----------|
|----------------------------1---|3---1---0-------------------3---|


 |       |       |       |        |       |       |       |        
|--------------------------------|--------------------------------|
|------------------------3-------|3---1---0-----------------------|
|3---1---------------------------|1---3---1---3---1-------1-------|
|--------3---2---0---------------|------------3---2---0-----------|
|--------------------3---2---0---|------------------------3---2---|
|1---0---------------------------|3-------------------------------|

 |       |       |       |        |       |       |       |        
|----------------0-------1-------|0-------------------------------|
|1---0---1---3-------------------|--------3---------3-2-0-2-------|
|3---1---------------------------|----3---------------------1-3-1-|
|--------3---0---------------0---|--------3---0-------------------|
|0---------------4---0-----------|0---------------0---------------|
|------------------------1-------|--------------------------------|

 |       |       |       |        |       |       |       |        
|--------------------------------|--------------------------------|
|3-------------------------------|--0-1---0-2-3-----1-0-1---0-1-3-|
|3-----------------------3-------|3-----3-------2---------3-------|
|4-------------------------3-2-0-|--------------------------------|
|5-------------------------------|3-------2-------0---------------|
|--------------------------------|--------------------------------|

 |       |       |       |        |       |       |       |        
|--------------------------------|--------------------------------|
|1-------------------------------|--------------------------------|
|----------3-1-3-4---------3-4-3-|1-------------------------1-3---|
|--3-2-3-0---------2-0-2-3-------|--3-2-0-2---0-----3-0-2-3-------|
|--------------------------------|----------3---1-0---------------|
|--------------------------------|--------------------------------|

 |       |       |       |        |       |       |       |        
|--------------------------------|--------------------------------|
|--------------------------------|--3-0-1-3-1-0-------------------|
|--1-3-4-3-1---------------1-----|--------------3-1---------------|
|0-----------3-2-0-----------3-2-|0-----------------2---0-2-0-----|
|------------------3-2-0---------|--------------------3-------3-2-|
|------------------------3-------|----------------0---------------|

 |       |       |       |        |       |       |       |        
|----------------0-------1-------|0-------------------------------|
|--1-0-1---0-1-3-----------------|--------3---------2-0-2---3-2---|
|--------3---------------------1-|------------------------3-----1-|
|------------------------0-2-3---|--2-0-2-3-2-3-0-2---------------|
|0-----------------0-2-4---------|0---------------0---------------|
|--------------------------------|--------------------------------|

 |       |       |       |        |       |       |       |        
|--------------------------------|--0-1-3-1---3-1---0-----0-------|
|3---------------------------0-2-|3---------0---------1-3-----3---|
|3-------------------------3-----|--------------------------3---2-|
|4-----------------------0-------|0-------0-----------------------|
|5-------------------------------|----------------3-----------2---|
|--------------------------------|--------------------------------|

 |       |       |       |        |       |       |       |        
|--------------------0-----1-3-1-|--0---0-----0-------------------|
|--2-0-2-3-1---0-1-3-------------|----3---2-3-----3---------------|
|------------3---------3---------|--------------1-3-----------1---|
|--------3---------------0-------|----------------4-------3---2---|
|0---------------3---------------|0---------------5-------5-------|
|--------------------------------|--------------------------------|

 |       |       |       |        |       |       |       |        
|----------------1-------0---1---|3-------5-----------3-1-0-------|
|--------3---5---3-------1-------|0---2---3---------------2-------|
|3-------5---6---3-------3-------|1-------------------------------|
|3-------5-----------------------|--------3-------2---------------|
|--------------------------------|----------------0---------------|
|--------------------------------|--------------------------------|

 |       |       |       |        |       |       |       |        
|2-------------------------------|--------------------------------|
|3---------------3-------1---0---|--0-1---3-1-0-------------------|
|3-------------------------------|3-----3-------3---3-1-------1---|
|0-------0-----------------------|----------------------3-2-3---2-|
|------------------------0-------|0-------2-------3---------------|
|--------------------------------|--------------------------------|

 |       |       |       |        |       |       |       |        
|--------------------------------|----------------1-------0-------|
|--------------------------0-1---|----------5-3-5-1-----------3---|
|----------------------1-3-----3-|--4-3-4---------3---------------|
|3-----------2-3-0-2-3-----------|--------5-----------------------|
|----2-3-0-------1-------0-------|------------------------0-------|
|--------------------------------|3---------------1---------------|

 |       |       |       |        |       |       |       |        
|----------------5-------5---3---|1---0---------------------------|
|1---0---------------------------|--------3-------3---1---0-------|
|--------3-----------------------|----------------1---3---1---3---|
|----------------0-------0-------|0---------------------------3---|
|0-------------------------------|----3---2---0-------------------|
|----3---1---0-------------------|----------------3-------3-------|

 |       |       |       |        |       |       |       |        
|--------------------0-----------|----------0-1---0---------------|
|--------------------------0-1---|0---0-2-3-----3-----------------|
|1-----------0---2-------3-----3-|--3-----------------------------|
|2-----------0---2-------3-------|2-------0---------3-2-0---0-2---|
|3---2---3-----------------------|----------------0-------4-----4-|
|--------------------------------|--------------------------------|

 |       |       |       |        |       |       |       |        
|------------------------5-------|5-------7---------8-5-7-8-------|
|3-------------------------6-5---|--5-----------------------------|
|3-----------------------------8-|6---8-6-5-8-6-5-----------5-6-8-|
|4-------------------------------|----------------7---------------|
|5-------------------------------|--------------------------------|
|--------------------------------|--------------------------------|

 |       |       |       |        |       |       |       |        
|--------5---------6-5-6---5-6-5-|--5-3-------3---1-------5-------|
|5-7-8-5-6-----------------------|------6-5-6-----1---------------|
|--------------------------------|--------------4-3---------------|
|--------3-------5-------3-------|--------------------------------|
|--------------------------------|3-------------------------------|
|--------------------------------|----------------1---------------|

 |       |       |       |        |       |       |       |        
|5-3-5-6-5-3---------------------|------0-------------------------|
|------------6-5-3---------------|--1-3---3-1-0-------------------|
|--------------------------------|--------------3-1-3-1-----------|
|0-------------------3-2-0-------|----------------------3-2-0-----|
|--------------------------3-2-0-|----------------------------3-2-|
|--------------------------------|3-------------------------------|

 |       |       |       |        |       |       |       |        
|----------------------------3-1-|0---0-----0-1-3-0-------0-------|
|------------------1-0-1---------|--3---2-3-----------3---2-------|
|------------------------3-------|------------------------3-------|
|----------3-2-0-----------------|--------0-----------------------|
|0-3-2-0---------0---------0-----|0---------------0---------------|
|--------3-----------------------|--------------------------------|

 |       |       |       |                
|--------------------------------||
|3-------------------------------||
|3-------------------------------||
|4-------------------------------||
|5-------------------------------||
|--------------------------------||

Tap to rate this tab
# A B C D E F G H I J K L M N O P Q R S T U V W X Y Z