Nicole Scherzinger - Right There tab

-- Nicole Scherzinger  Right There --

standard tuning EADGBE

tabbed by x-tasha-x

hey this song is the same all the way through =D


INTRO:
E||-------------------5---5---5---5h7-5--|  
B||-6---6---6---6--8---5---5---5--5h5-5--|  
G||--5---5---5----------5---5---5--------|
D||---7---7---7--------------------------|  
A||--------------------------------------|  
E||--------------------------------------|  


VERSE/CHORUS/BRIDGE:
               F                 G             Am                  C
E||---------------------------------------------------------------------|  
B||---------------------------------------------------------------------|  
G||--------------------------------------------------------------555555-|
D||-33333333333333333333333333-555555-77777777777777777777777777-555555-|  
A||-33333333333333333333333333-555555-77777777777777777777777777-333333-|
E||-11111111111111111111111111-333333-55555555555555555555555555--------| 

Tap to rate this tab
 
# A B C D E F G H I J K L M N O P Q R S T U V W X Y Z