Song name
# A B C D E F G H I J K L M N O P Q R S T U V W X Y Z

Nicole Scherzinger - Stickwitu Acoustic chords

Highlighted       Show chord diagrams
"Stickwitu" by Nicole Scherzinger (Acoustic)


INTRO:

     Dmaj7        A         Dmaj7       A

e-----------------5----------5------------------0----|
B------7----------5----------7----------2----3-------|
G------6----------6----------6----------2------------|
D------7--------------------------------2------------|
A------5---------------------5----------0------------|
E-----------------5----------------------------------|


     Dmaj7        A          Bm         A

e----------------------------------------------------|
B------7----------5----------7----------2------------|
G------6----------6----------7----------2------------|
D------7----------7----------9----------2------------|
A------5--------------------------------0------------|
E-----------------5----------7-----------------------|


VERSE 1

Dmaj7        A      Dmaj7   A
I don't wanna go another day
     Dmaj7            A            Bm       A
So I'm telling you exactly what is on my mind
     Dmaj7            A
Seems like everybody's breaking up
Dmaj7                 A
Throwing their love away,
      Dmaj7              A          Bm
But I know I got a good thing right here
            A
That's why I say (Hey)


CHORUS

Dmaj7          A
Nobody gonna love me better
Dmaj7               A
I must stick with you forever
Dmaj7            A
Nobody gonna take me higher
Bm                A
I must stick with you
Dmaj7            A
You know how to appreciate me
Dmaj7               A
I must stick with you, my baby.
Dmaj7          A               Bm
Nobody ever made me feel this way
                A
I must stick with you


VERSE 2 (same chords as VERSE 1)

I don't wanna go another day
So I'm telling you exactly what is on my mind
See the way we ride in our private lives
Ain't nobody getting in between
I want you to know that you're the only one for me (one for me)
And I say


[repeat CHORUS]


BRIDGE

Dmaj7
And now    

       C#m               F#m       
Ain't nothing else I can need (nothing else I can need)

Dmaj7
And now

      C#m                           F#m
I'm singing 'cause you're so, so into me

Dmaj7
I got you

         C#m               F#m
We'll be making love endlessly

        Bm
I'm with you (baby, I'm with you)

              E
Baby, you're with me (Baby, you're with me)


INTERLUDE

Dmaj7                A
So don't you worry about
               Dmaj7            
People hanging around
                       A
They ain't bringing us down
Dmaj7              A
I know you and you know me
           Bm            A
And that's all that counts
Dmaj7                A
So don't you worry about
               Dmaj7
People hanging around,
                       A
They ain't bringing us down
Dmaj7              A
I know you and you know me
Bm                A
And that's why I say


[repeat CHORUS x2]


Dmaj7         A              Dmaj7          A
Nobody ever made me feel this way, but baby you...
Tap to rate this tab
 
# A B C D E F G H I J K L M N O P Q R S T U V W X Y Z