Song name
# A B C D E F G H I J K L M N O P Q R S T U V W X Y Z

Nicolo Paganini - 24th Caprice tab

A little arrangement i did to Paganini's 24th Caprice on guitar, enjoy it

e----------------------------------------|
B--------------5---------------------5---|
G-2--2-2-5-4-2-------------2-2-5-4-2-----|
D----------------2-4-6-4-2-------------2-|
A----------------------------------------|
E----------------------------------------|

e-5--5-5-6-5-3-1---------------------------|
B----------------3-3-6-5-3-8--8-8-10-8-6-5-|
G------------------------------------------|
D------------------------------------------|
A------------------------------------------|
E------------------------------------------|

e-------------------------------------------------|
B-1-1-4-3-1-6-0-0-3-1-0-5-----------2-------------|
G-------------------------2-2-5-4-------7-5-4-2---|
D---------------------------------2---3-----------|
A-----------------------------------------------0-|
E-------------------------------------------------|

e-----------------------------------------1-1-1-1-3-3-3-3---------|
B-1-1-1-1---------1-1-1-1---------2-2-2-2-3-3-3-3---------1-1-1-1-|
G-2-2-2-2-1-1-1-1-2-2-2-2-1-1-1-1-2-2-2-2-2-2-2-2-----------------|
D-2-2-2-2-2-2-2-2-2-2-2-2-2-2-2-2-2-2-2-2-----------------2-2-2-2-|
A---------2-2-2-2---------2-2-2-2-----------------2-2-2-2-3-3-3-3-|
E-------------------------------------------------3-3-3-3---------|
  Am      E       Am      E       A       Dm      G       C


e--------------------||
B--------------------||
G--------------------||
D-9-6-3-0---0-3------||
A---------2--------0-||
E--------------------||

the end
Tap to rate this tab
# A B C D E F G H I J K L M N O P Q R S T U V W X Y Z