Song name
# A B C D E F G H I J K L M N O P Q R S T U V W X Y Z

Nicolo Paganini - Moto Perpetuo tab

------------------------------------
- Moto Perpetuo - Niccolo Paganini -
------------------------------------

this isn't the whole song, just an exercise/part

16th notes

e|--------------------------------------------|--------------------------------------------|
B|--------------------------------------------|--------------------------------------------|
G|---------------------------------------9----|--------------------------9-10-9-12-10-9----|
D|----------------------10-12-10-9-10-12---10-|-12-10-9----------9-10-12----------------12-|
A|--------------------------------------------|---------12-10-12---------------------------|
E|--------------------------------------------|--------------------------------------------|

e|--------------------------------------------|--------------------------------------------|
B|--------------------------------------10----|--------------------------------------------|
G|-9-10-9----------9-10-12-10-9-------9----12-|-10-9------------12-10-9---------------9----|
D|--------12-10-12--------------12-11---------|------12-10-9-12---------12-10-9----12---12-|
A|--------------------------------------------|---------------------------------12---------|
E|--------------------------------------------|--------------------------------------------|

e|--------------------------------------------|--------------------------------------------|
B|--------------------------------------------|--------------------------------------------|
G|---------------------------------------9----|--------------------------9-10-9-12-10-9----|
D|-10-9---------------9-10-12-10-9-10-12---10-|-12-10-9----------9-10-12----------------12-|
A|------12-10-9-10-12-------------------------|---------12-10-12---------------------------|
E|--------------------------------------------|--------------------------------------------|

e|--------------------------------------------|--------------------------------------------|
B|--------------------------------------10----|--------------------------------------------|
G|-9-10-9----------9-10-12-10-9-------9----12-|-10-9------------12-10-9---------------10-9-|
D|--------12-10-12--------------12-11---------|------12-10-9-12---------12-10-9----10------|
A|--------------------------------------------|---------------------------------12---------|
E|--------------------------------------------|--------------------------------------------|

e|--------------------------------------------|---------------------------------------------|
B|--------------------------------------------|---------------------------------------10----|
G|-----------------9--------------------------|-------------------------------9-10-12----12-|
D|-12-10-9-------9---12-10-9------------12-10-|-9----------9-10-12-10-9-10-12---------------|
A|---------12-11-------------12-10-9-12-------|---12-10-12----------------------------------|
E|--------------------------------------------|---------------------------------------------|

e|----------------------------------------------|------------------------------------------|
B|-10----------10-------------------------------|------------------------------------------|
G|----12-11-12----12-10-9-12-10-9-10-12-10-9----|-10-9\8/9-10-9-------9----------9---------|
D|-------------------------------------------12-|---------------12-10---12-11-12---12-10-9-|
A|----------------------------------------------|------------------------------------------|
E|----------------------------------------------|------------------------------------------|

e|----------------------------------------------|-------------10----------------------------------|
B|-------------------------------------10-12-13-|-10-12-13-12----13-12-10-10----------12-10-------|
G|------------------9-10-12-10-9-10-12----------|----------------------------12-11-12-------12-10-|
D|-10-------9-10-12-----------------------------|-------------------------------------------------|
A|----10-12-------------------------------------|-------------------------------------------------|
E|----------------------------------------------|-------------------------------------------------|

e|---------------------------------------------|-------------10----------------------------------|
B|------------------------------------10-12-13-|-10-12-13-12----13-12-10-10----------12-10-------|
G|-9---------------9-10-12-10-9-10-12----------|----------------------------12-11-12-------12-10-|
D|---------9-10-12-----------------------------|-------------------------------------------------|
A|---10-12-------------------------------------|-------------------------------------------------|
E|---------------------------------------------|-------------------------------------------------|

e|-----------------------------------10----------|----------------|
B|-----------------10-12-13-12-13-12----13-12-10-|-9~~~~~~~~~~~~~-|
G|-9-12-10-9-10-12-------------------------------|- (whole note) -|
D|-----------------------------------------------|----------------|
A|-----------------------------------------------|----------------|
E|-----------------------------------------------|----------------|
Tap to rate this tab
# A B C D E F G H I J K L M N O P Q R S T U V W X Y Z