Song name
# A B C D E F G H I J K L M N O P Q R S T U V W X Y Z

Nicolo Paganini - Caprice Opus 1 No 24 tab

-------------------------------------------------------------------------------
			     Caprice Opus 1 No.24 - Nicolo Paganini

-------------------------------------------------------------------------------
Tabbed by: benmiddlemost	
Email: abysmal_faculty@hotmail.co.uk

Tuning: E A D G B e

| /  slide up
| \  slide down
| h  hammer-on
| p  pull-off
| ~  vibrato
| +  harmonic
| x  Mute note


This is a great classical melody to be played on Rock Guitar , it is played quite fast.
About 200bpm

   Am                      E7

e|---------------------------------------------------------------------------|
B|---------------------------------------------------------------------------|
G|------------------5----------------5---------------------------------------|
D|------------5-4--------------5-4-------------------------------------------|
A|-7-----7-7------7--------7-7-----7-------7~~-------------------------------|
E|---------------------------------------------------------------------------| X2

   A               Dm             G                  C                F

e|-5-----5-5-6-5------------------------------5------------------------------|
B|---------------8-6--------6-5---8-------8-8---8-6-5---------5-------6------|
G|----------------------7-7-----7-------------------------5-5---7-5----------|
D|---------------------------------------------------------------------------|
A|---------------------------------------------------------------------------|
E|---------------------------------------------------------------------------|

             Am                F7           E7    Am

e|---------------------------------------------------------------------------|
B|-----------5-------------------------4----5-3------------------------------|
G|-4-4-7-5-4---------------5-4------------------4--2~~-----------------------|
D|---------------------7-7-----3---------2-------------------7---------------|
A|-----------------------------------------------------------7---------------|
E|-----------------------------------------------------------5---------------|




===============================================================================
Tap to rate this tab
 
# A B C D E F G H I J K L M N O P Q R S T U V W X Y Z