Song name
# A B C D E F G H I J K L M N O P Q R S T U V W X Y Z

Nidji - Never Too Late tab

----------------------------------------------------------------------------
NEVER TOO LATE - Hedley
----------------------------------------------------------------------------
Tabbed by: Jared Kist
Email:benefit.of.a.doubt@hotmail.com

If you’re unsure of what you’re doing,
listen to the song, if you’re still unsure
just e-mail me or whatnot, I’m on Facebook
too so you can also message me on there.
*NEW* http://www.youtube.com/watch?v=_cFAE9vR084
That's me playing this tab with the song.

Tuning:EADGBe

Intro/Verse
e|---------------------------------------------------------------------------|
B|-------9-------------------------9---------------------------------9-------|
G|----------9-----11~~~9--11\---------9--------9----------9--11---9------9---|
D|---/9--------9---------------/9--------9--7-----9----9---9---9-------------|
A|---------------------------------------------------------------------------|
E|---------------------------------------------------------------------------|

“Here’s to all the broken hearts tonight…” X2
e|---------------------------------------------------------------------------|
B|--9-9-9-9-9--9--9--9-------------------------------------------------------|
G|--9-9-9-9-10-10-10-10------------------------------------------------------|
D|--9-9-9-9-9--9--9--9-------------------------------------------------------|
A|---------------------------------------------------------------------------|
E|---------------------------------------------------------------------------|

“Here’s to every girl and boy…” X4
e|---------------------------------------------------------------------------|
B|-------9------------9------------------------------------------------------|
G|--9-11---11----9-11--------------------------------------------------------|
D|---------------------------------------------------------------------------|
A|---------------------------------------------------------------------------|
E|---------------------------------------------------------------------------|

Chorus (Listen really hard, it’s covered by the other tracks)
e|---------------------------------------------------------------------------|
B|---------------------------------------------------------------------------|
G|---------------------------------------------------------------------------|
D|---------------------------------------------------------------------------|
A|-7-7-7-11-9--7-7-7-11-9--6-6-6-9-7--6-6-6-9-7--7-7-7-11-9--7-7-7-11-9------|
E|---------------------------------------------------------------------------|

e|---------------------------------------------------------------------------|
B|---------------------------------------------------------------------------|
G|---------------------------------------------------------------------------|
D|---------------------------------------------------------------------------|
A|-7-7-7-11-9--6-6-6-9-7-----------------------------------------------------|
E|---------------------------------------------------------------------------|

Chorus Cont. “Don’t settle for the cold and rain…”
e|---------------------------------------------------------------------------|
B|---------------------------------------------------------------------------|
G|---------------------------------------------------------------------------|
D|---------------------------------------------------------------------------|
A|-777777779999999911-11-11-11999977776-7-9-6-7------------------------------|
E|---------------------------------------------------------------------------|

Intro/Verse (multiple times)
e|---------------------------------------------------------------------------|
B|-------9-------------------------9---------------------------------9-------|
G|----------9-----11~~~9--11\---------9--------9----------9--11---9------9---|
D|---/9--------9---------------/9--------9--7-----9----9---9---9-------------|
A|---------------------------------------------------------------------------|
E|---------------------------------------------------------------------------|

“Here’s to all the broken hearts tonight…” X2
e|---------------------------------------------------------------------------|
B|--9-9-9-9-9--9--9--9-------------------------------------------------------|
G|--9-9-9-9-10-10-10-10------------------------------------------------------|
D|--9-9-9-9-9--9--9--9-------------------------------------------------------|
A|---------------------------------------------------------------------------|
E|---------------------------------------------------------------------------|

“Here’s to every girl and boy…” X4
e|---------------------------------------------------------------------------|
B|-------9------------9------------------------------------------------------|
G|--9-11---11----9-11--------------------------------------------------------|
D|---------------------------------------------------------------------------|
A|---------------------------------------------------------------------------|
E|---------------------------------------------------------------------------|

Chorus (Listen really hard, it’s covered by the other tracks)
e|---------------------------------------------------------------------------|
B|---------------------------------------------------------------------------|
G|---------------------------------------------------------------------------|
D|---------------------------------------------------------------------------|
A|-7-7-7-11-9--7-7-7-11-9--6-6-6-9-7--6-6-6-9-7--7-7-7-11-9--7-7-7-11-9------|
E|---------------------------------------------------------------------------|

e|---------------------------------------------------------------------------|
B|---------------------------------------------------------------------------|
G|---------------------------------------------------------------------------|
D|---------------------------------------------------------------------------|
A|-7-7-7-11-9--6-6-6-9-7-----------------------------------------------------|
E|---------------------------------------------------------------------------|

Chorus Cont. “Don’t settle for the cold and rain…”
e|---------------------------------------------------------------------------|
B|---------------------------------------------------------------------------|
G|---------------------------------------------------------------------------|
D|---------------------------------------------------------------------------|
A|-777777779999999911-11-11-11999977776-7-9-6-7------------------------------|
E|---------------------------------------------------------------------------|

Solo
e|----------------------------------------------------------------------|
B|----------------------------------------------------------------------|
G|----------------------------------------------------------------------|
D|-------------------9----------------/11-9-----------------------------|
A|-----------7-9-/11---11---------7-9------11-------7-9-/11--9--7-------|
E|-------7h9------------------7h9---------------7h9----------------0----|

e|----------------------------------------------------------------------|
B|----------------------------------------------------------------------|
G|-----------9--------9-------------------------------------------------|
D|------9h11---9-9h11-----------------9---------------------------------|
A|-----------------------------7-9-/11---11-----------------------------|
E|----------------------0--7h9------------------------------------------|

e|----------------------------------------------------------------------|
B|-----7----------14-------9--------------------------------------------|
G|-----9b--7-9----16b-16---11b-11-9-------------------------------------|
D|----------------------------------------------------------------------|
A|----------------------------------------------------------------------|
E|----------------------------------------------------------------------|

8 times I think
e|---------------------------------------------------------------------------|
B|-------9------------9------------------------------------------------------|
G|--9-11---11----9-11--------------------------------------------------------|
D|---------------------------------------------------------------------------|
A|---------------------------------------------------------------------------|
E|---------------------------------------------------------------------------|

Chorus type thing. “I’m gone etc…” (Listen really hard, it’s covered by the other tracks)
*Note: There is a solo somewhere in here, but I’ll be damned if I could figure it out*
e|---------------------------------------------------------------------------|
B|---------------------------------------------------------------------------|
G|---------------------------------------------------------------------------|
D|---------------------------------------------------------------------------|
A|-7-7-7-11-9--7-7-7-11-9--6-6-6-9-7--6-6-6-9-7--7-7-7-11-9--7-7-7-11-9------|
E|---------------------------------------------------------------------------|

e|---------------------------------------------------------------------------|
B|---------------------------------------------------------------------------|
G|---------------------------------------------------------------------------|
D|---------------------------------------------------------------------------|
A|-7-7-7-11-9--6-6-6-9-7-----------------------------------------------------|
E|---------------------------------------------------------------------------|

Chorus Cont. “Don’t settle for the cold and rain…”
e|---------------------------------------------------------------------------|
B|---------------------------------------------------------------------------|
G|---------------------------------------------------------------------------|
D|---------------------------------------------------------------------------|
A|-777777779999999911-11-11-11999977776-7-9-6-7------------------------------|
E|---------------------------------------------------------------------------|

So that’s it I believe. It’s late and I’m tired so hopefully
I didn’t forget anything.
If you want the chords Jacob plays on his acoustic (Gibson Hummingbird btw, sexy 
there’s another tab with
them, very good too. E-mail/add me on msn
if you have questions/concerns or just want to
thank me (it won’t go to my head, I… Uh…
Well I won’t guarantee anything). Happy playing!
Tap to rate this tab
 
# A B C D E F G H I J K L M N O P Q R S T U V W X Y Z