Song name
# A B C D E F G H I J K L M N O P Q R S T U V W X Y Z

Nidji - Disco Lazy Time tab

 ---------------------------------------------------------------------------
			   Disco Lazy Time - Nidji
 ---------------------------------------------------------------------------
Tabbed by: Raiyan000
Email: raiyan_ard@yahoo.com

Tuning: Standar


Intro :
e|---------------------------||-------------------------------|
B|---------------------------||---------------------7-5-------|
G|---10101010-8-7-5h7-8-77---||---10101010-8-7-8h10-----7-7---|  2x
D|---------------------------||-------------------------------|   
A|---------------------------||-------------------------------|
E|---------------------------||-------------------------------|

Bridge :
e|---------------------------------------------------|
B|---8-8-8-8-8-8-8-8-7-9-11-12-7-9-11-12-------------|
G|---------------------------------------------------|
D|---------------------------------------------------|
A|---------------------------------------------------|
E|---------------------------------------------------|
 Time...is the loneliest people then life. Is the loneliest time...


e|-----------------------------------------------------12----------|
B|---8-8-8-8-8-8-8-8-7-9-11-12--13131313-14141414-1515-------------|
G|-----------------------------------------------------------------|
D|-----------------------------------------------------------------|
A|-----------------------------------------------------------------|
E|-----------------------------------------------------------------|
 Time...is the loneliest people life...ahaaaa.. Now..


Ending :
e|---------------------------|
B|------11-----11-----11-----|
G|---9-9----9-9---9-9--------|
D|---------------------------|
A|---------------------------|
E|---------------------------|
Tap to rate this tab
 
# A B C D E F G H I J K L M N O P Q R S T U V W X Y Z