Song name
# A B C D E F G H I J K L M N O P Q R S T U V W X Y Z

Nifelheim - Devastation tab

Help us improve GuitareTab! Take a short survey!
Normal Tuning

Intro: Riff:1					   Riff:2
|-----|-------------------------------------------|-----------------|
|-----|-------------------------------------------|-----------------|
|-(2)-|-------------------------------------------|-----------------|
|-(2)-|-2222-2-3-2-2222-2-3-2-2-2-2-3-2-2-2-2-3-2-|-222222222-2-3-2-|
|-(0)-|-0000-------0000-------0-0-------0-0-------|-000000000-------|
|-----|-------------------------------------------|-----------------|

Riff:3               Riff:4
|-------------------|-----------------------------------------------|
|-------------------|-----------------------------------------------|
|---------------3-2-|-----------------------------------------------|
|-222222222-3-2-----|--------------------9-8-9--8-10--9-5-4---------|
|-000000000---------|-7-6-7--6-8--7-3-2--7-6-7--6-8---7-3-2---------|
|-------------------|-5-4-5--4-6--5-1-0-----------------------------|

Riff:5                     Fill:1
|-------------------------|-----------------------------------------|
|-------------------------|-----------------------------------------|
|----------3-2------------|-----------------------------------------|
|-2222-3-2-----2222-3-2-1-|-2-2-2-2-2-2-2-2-------------------------|
|-0000---------0000-------|-0-0-0-0-0-0-0-0-------------------------|
|-------------------------|-----------------------------------------|

Solo:1   ^	   p     p     p     p     p     p     p     p
|---^---^-v----/17-20-17-20-17-20-17-20-17-20-17-20-17-20-17-20-17--|
|-8^-v-^---v~-------------------------------------------------------|
|-----v-------------------------------------------------------------|
|-------------------------------------------------------------------|
|-------------------------------------------------------------------|
|-------------------------------------------------------------------|

Cont.
    p     p     p     p     p     p     p     p     p     p
|-20-17-21-18-21-18-21-18-21-18-21-18-21-18-21-18-21-18-21-18~~~~\--|
|-------------------------------------------------------------------|
|-------------------------------------------------------------------|
|-------------------------------------------------------------------|
|-------------------------------------------------------------------|
|-------------------------------------------------------------------|

Riff:6                      Fill:2
|--------------------------|----------------------------------------|
|--------------------------|----------------------------------------|
|--------------------------|----------------------------------------|
|-222333222333222333111222-|-(2)---10-5-2---------------------------|
|--------------------------|-(0)---8--3-0---------------------------|
|--------------------------|----------------------------------------|

Related for Devastation tab