Song name
# A B C D E F G H I J K L M N O P Q R S T U V W X Y Z

Nifelheim - Black Curse tab

Normal Tuning


Riff:1					    Riff:2
|------------------------------------------|------------------------|
|------------------------------------------|------------------------|
|-44-xxxxxxxx-44-xxxxxxxx-44-xxxxxxxx------|------------------------|
|-44-xxxxxxxx-44-xxxxxxxx-44-xxxxxxxx--5---|-444444444444444--h-p---|
|-22-xxxxxxxx-22-xxxxxxxx-22-xxxxxxxx--3-3-|-222222222222222-0-3-0--|
|----------------------------------------1-|------------------------|

Riff:3					 Fill:1
|---------------------------------------|---------------------------|
|---------------------------------------|---------------------------|
|---------------------------------------|---------------------------|
|--------------4-3-4--------------5-4-5-|---------------------------|
|-444455554444-2-1-2-444455554444-3-2-3-|-4445555444-5-7------------|
|-222233332222-------222233332222-------|-2223333222-3-5------------|

Riff:4                    Riff:5                    End of Riff:5
|------------------------|-19----------20----------|----------------|
|------------------------|----19-20-19----19-20-19-|----------------|
|------------------------|-------------------------|--16~~\---------|
|-----7-9-11-----7-6-7-6-|-------------------------|----------------|
|-9-7-5-7-9--9-7-5-4-5-4-|-------------------------|----------------|
|-7-5--------7-5---------|-------------------------|----------------|

Riff:6			   Riff:7
|-------------------------|-----------------------------------------|
|-------------------------|-----------------------------------------|
|-------------------------|-----------------2-1----------------2-1-2|
|-4-4-4-4-4-4-4-5-4-4-----|-4-4-4-4-4-5-4-4-----4-4-4-4-4-5-4-4-----|
|-2-2-2-2-2-2-2-3-2-2-3-3-|-2-2-2-2-2-3-2-2-----2-2-2-2-2-3-2-2-----|
|---------------------1-1-|-----------------------------------------|

Riff:8
|-------------------------------------------------------------------|
|-------------------------------------------------------------------|
|---------4-------4-------4--------------3-------3-------3----------|
|-4-4---4---4---4---4---4---4----3-3---3---3---3---3---3---3--------|
|-2-2-2-------2-------2-------2--1-1-1-------1-------1-------1------|
|-------------------------------------------------------------------|

Riff:9 (under solo & riff end)
|-------------------------------------------------------------------|
|-------------------------------------------------------------------|
|-------------------------------------------------------------------|
|-------------------55555555444444444-(4)-----------------------4---|
|-(2)---44444444444433333333222222222-(2)-----------------------2---|
|-(0)---222222222222------------------------------------------------|

Solo:1
|------------------------------8-7-------------------------8-7------|
|-------------------------/7~~-----6~~---/7~~-----6~~-/7~~-----6~~--|
|-6~~-7-6-4~~-6~~-7-6-4~~---------------------5-4-------------------|
|-------------------------------------------------------------------|
|-------------------------------------------------------------------|
|-------------------------------------------------------------------|

Cont.
|-------------------------------------------------------------------|
|-/7~~-----6~~~~-66778899101011111212131314141515161617171818191920-|
|------5-4----------------------------------------------------------|
|-------------------------------------------------------------------|
|-------------------------------------------------------------------|
|-------------------------------------------------------------------|

Cont.
|-------------------------------------------------------------------|
|-121212121212121212121212121212(12)~~~~~~~~~~~~~12\\\--------------|
|-------------------------------------------------------------------|
|-------------------------------------------------------------------|
|-------------------------------------------------------------------|
|-------------------------------------------------------------------|
Tap to rate this tab
# A B C D E F G H I J K L M N O P Q R S T U V W X Y Z