Song name
# A B C D E F G H I J K L M N O P Q R S T U V W X Y Z

Nifelheim - Unholy Death tab

Normal Tuning

Riff:1             Riff:2	    Riff:3
|-----------------|-----------------|-------------------------------|
|-----------------|-----------------|-------------------------------|
|-----------------|-----------------|-------------------------------|
|-----------------|-----------------|---4-3----3-2-3----4-3------2--|
|-4-4-4-4-4-4-4-5-|-7-7-7-7-7-7-7-8-|-4-2-1-4--1-0-1--4-2-1-4--3-0--|
|-2-2-2-2-2-2-2-3-|-5-5-5-5-5-5-5-6-|-2-----2---------2-----2--1----|

Riff:4a      Riff:4b      Fill:1    Riff:4c
|------------|-----------|---------|--------------------------------|
|------------|-----------|---------|--------------------------------|
|------------|-----------|-/444444-|--------------------------------|
|------------|-----------|---------|--------------------------------|
|-4444-77-33-|-4-4-77-33-|---------|-4444777333---------------------|
|-2222-55-11-|-2-2-55-11-|---------|-2222555111---------------------|

Solo:1
|-------------------------------------------------------------------|
|-------------------------------------------h--p--------h--p--------|
|-------p------h--p--------h--p-----------18-19-18----13-14-13------|
|-----16-15--11-12-11----11-12-11------------------19----------14---|
|-/14-----------------14----------14-13~~---------------------------|
|-------------------------------------------------------------------|

Cont.
|---------------------h--h-----h--h---------------------------------|
|------------h--h---13-15-16-15-17-18~~-18\-------------------------|
|---h--h---13-15-16-------------------------------------------------|
|-13-15-16----------------------------------------------------------|
|-------------------------------------------------------------------|
|-------------------------------------------------------------------|

Fill:2
|-------------------------------------------------------------------|
|-------------------------------------------------------------------|
|-------------------------------------------------------------------|
|-------------------------------------------------------------------|
|-4444444--(4)---4\-------------------------------------------------|
|-2222222--(2)---2\-------------------------------------------------|

Tap to rate this tab
 
# A B C D E F G H I J K L M N O P Q R S T U V W X Y Z