Song name
# A B C D E F G H I J K L M N O P Q R S T U V W X Y Z

Nifelheim - Witchfuck tab

Normal Tuning

Riff:1	           Riff:2                      Riff:3
|-------------------|---------------------------|-------------------|
|-------------------|---------------------------|-------------------|
|-------------------|---------------------------|-------------------|
|-22222101010109999-|-222999101010-222101010999-|-999----------999--|
|-000008-8-8-8-7777-|-0007778-8-8--0008-8-8-777-|-777101010888-777--|
|-------------------|---------------------------|----8-8-8-666------|

Solo:1			                    p        p        p
|-Triil~~~~~~~~~~~~~~~~~~~~~~~~~~~~~---------19-15----19-15----17-14|
|--5-8-\-Bar--------------------------\15-17-------17-------17------|
|-------\--------------------/~~~_----------------------------------|
|--------\____--------------/-----\---------------------------------|
|-------------\------____~~/-------\--------------------------------|
|--------------\----/-----------------------------------------------|
	       \__/
Cont.
    p        p     p        p     p        p     p
|-17-14----17-14-17-14----19-14-19-14----17-14-17-14----14-17^-17^--|
|-------17-------------17-------------17-------------17-------------|
|-------------------------------------------------------------------|
|-------------------------------------------------------------------|
|-------------------------------------------------------------------|
|-------------------------------------------------------------------|

Cont.

|-17^-17^-17^~~~~---------------------------------------------------|
|------------------------------8---------------8--------------------|
|----------------9-----8-9-------9-----8-9-------9-----8-9-----8-9~~|
|------------------9-8-----9-8-----9-8-----9-8-----9-8-----9-8------|
|-------------------------------------------------------------------|
|-------------------------------------------------------------------|

(Both riff3&4 are under solo)
Cont. Riff3     Riff:4      Riff:5		      Fill:1
|--------------|-----------|-------------------------|--------------|
|--------------|-----------|-------------------------|--------------|
|--------------|-----------|------------------p---p--|-Fade-Out-----|
|-------101010-|-9-10------|-------555-------8-5-8-5-|--------------|
|-1010108-8-8--|-7-8--9-10-|----777-------777--------|-(2)----------|
|-8-8-8--------|------7-8--|-000-------000-----------|-(0)----------|

Tap to rate this tab
# A B C D E F G H I J K L M N O P Q R S T U V W X Y Z