Song name
# A B C D E F G H I J K L M N O P Q R S T U V W X Y Z

Night Ranger - Sister Christian tab

-------------------------------------------------------------------------------
			    Sister Christian(solo)- Night Ranger
----------------------------------------------------------------------------
Tabbed by:James Cann Lespauljames
Email:lespauljames@live.co.uk

first ever tab! go easy
Tuning:EADGBe
 * here play c(string 2) pull c up to d and then fret g on d string whist the
e|---------------------------------------------------------------------------|
B|---------------------------------------------------------------------------|
G|--2(3)br(+)---*------------------------------------------------------------|
D|-------3----------------7wb(-2)---5wb(-1.5)-------(dip bar)----------------|
A|---------3---3wb(+2)---hold------------------------------------------------|
E|---------------------------------------------------------------------------|
 bar is stil raised. then return it to poition
e|---------------------------------------------------------------17---20~~~|
B|---------------------------------------------------/17----20-------------|
G|------------------------------2--2b3-2-----------------------------------|
D|---2WB(+2 then return)-----------------3---------------------------------|
A|-----------------------------------------3-------------------------------|
E|-------------------------------------------------------------------------|

e|19~~~17~~~---------------------------------------------------------------|
B|--------------------------------------------------------------15br(17)-13|
G|----------------------------4--5~~~4~~~----------------------------------|
D|--------------------5---7--------------7~~~5~~~---3---2---0--------------|
A|-------------------------------------------------------------------------|
E|-------------------------------------------------------------------------|

e|------15--------------------------------------------------------15-14-12-|
B|15b(17h)-(17rslow 15)-13-15b(h16)-t21-(16)-t21-(16r)--13h15~~~-----------|
G|-------------------------------------------------------------------------|
D|-------------------------------------------------------------------------|
A|-------------------------------------------------------------------------|
E|-------------------------------------------------------------------------|

e|/17----------------------------------------------------------------------|
B|------0wb(+2)--------15--12-12----12----12--------------/12-13~~~--------|
G|---------------------14--12-12h14-12h14p12-----/12--/14------------------|
D|-------------------------------------------------------------------------|
A|-------------------------------------------------------------------------|
E|-------------------------------------------------------------------------|


e|15p14p12--/17~~~--15p14p12--/19~~~---15p14p12--/22Bu(24h)~~~~~~----------|
B|-------------------------------------------------------------------------|
G|-------------------------------------------------------------------------|
D|-------------------------------------------------------------------------|
A|-------------------------------------------------------------------------|
E|-------------------------------------------------------------------------|

************************************
| h hold bend
| r Release bend
| WB(+2) Whammy bar +2 tones e.t.c
| /   slide up
| \   slide down
| h   hammer-on
| p   pull-off
| ~   vibrato
| +   harmonic
| x   Mute note
| b   Bend
| pb  Pre-bend
| br  Bend release
| pbr Pre-bend release
| brb Bend release bend

************************************
Tap to rate this tab
 
# A B C D E F G H I J K L M N O P Q R S T U V W X Y Z