Song name
# A B C D E F G H I J K L M N O P Q R S T U V W X Y Z

Nightfall - Lesbian Show tab

Nightfall: Lesbian Show

Tune 1 step down?

Riff 1
--------------------------------------------------------
--------------------------------------------------------
-7-6-2-4-4-4-4-4-4-4-4-4--9-9--7-7--6-6--4--------------
-7-6-2-4-4-4-4-4-4-4-4-4--9-9--7-7--6-6--4--------------
-5-4-0-2-2-2-2-2-2-2-2-2--7-7--5-5--4-4--2--------------
--------------------------------------------------------

--------------------------------------------------------
--------------------------------------------------------
-7-6-2-4-4-4-4-4-4-4-4-4--9-9---------7-7-6-------------
-7-6-2-4-4-4-4-4-4-4-4-4--9-9--5-5-5--7-7-6-------------
-5-4-0-2-2-2-2-2-2-2-2-2--7-7--5-5-5--5-5-4-------------
-------------------------------3-3-3--------------------

This is all so far...
Tap to rate this tab
# A B C D E F G H I J K L M N O P Q R S T U V W X Y Z