Song name
# A B C D E F G H I J K L M N O P Q R S T U V W X Y Z

Nightingale - Still In The Dark tab

-------------------------------------------------------------------------------
			     STILL IN THE DARK - Nightingale
-------------------------------------------------------------------------------
Tabbed by: Jetfuel495
Email:

Tuning: D Standard (One step down)


D|-----|
A|-----|
F|-----|
C|-----|
G|-----|
D|--0--|

^ A single 8th note right before the main riff comes in.


D|-----------------------------------------------|
A|-----------------------------------------------|
F|-----------------------------------------------|
C|-----------4-------2---------------------------|
G|--------4-------4---------0--2--3--2--0--------|
D|--2--5-----------------------------------2--0--|



D|-----------------------------------------------|
A|-----------------------------------------------|
F|------------------------1--2--1-----1--2--4----|
C|-----------4-------2-------------2-------------|
G|--------4-------4------------------------------|
D|--2--5---------------------------------------0-|

Do those two riffs twice. Then the verse comes in.


There's the intro, the rest of the song will come sooner or later... probably later...
Tap to rate this tab
# A B C D E F G H I J K L M N O P Q R S T U V W X Y Z