Song name
# A B C D E F G H I J K L M N O P Q R S T U V W X Y Z

Nightmare Of You - Please Dont Answer Me chords

Highlighted       Show chord diagrams
Artist: Nightmare of You
Song: Please Don't Answer Me
Album: Infomaniac


Standard Tuning (EADGBe)



INTRO:
C  Cadd9


VERSE:
C                               G
 I was wondering while you were in the bar with me
                    F           Dm                C      
 Did the candle by you signal a flame inside your jeans?
C                               G
 But please don't answer me. My drink just became three
               F     Dm                       C  Cadd9
 And yes, I am scared of what the truth may be


CHORUS:
Am            G              C            F
 And it feels like I've been hit by a motorbike
A/G           G             Am  G F    G           Am   G  F  G 
 Sure it's lonely, but it's sane and gentle on the brain

C   Cadd9


VERSE:
C                       G
 I was wondering, is my name in your book tonight?
                    F              Dm                   C
 Is there a page or five concerning you and I?  Oh, nevermind.
C                                     G
 But please don't answer me. I couldn't bare the weight.
                    F              Dm                    C  Cadd9
 If you give me the chance, I will blast your paradise away.



CHORUS:
Am            G              C            F
 And it feels like I've been hit by a motorbike
A/G           G             Am  G F    G           Am   G
 Sure it's lonely, but it's sane and gentle on the brain
F                  G              Am G F    G           C
 Well, sure it's lonely but it's sane and gentle on the brain.


SOLO:
(guitar 2 tabbed below)

Am  G   C   F
A/G  G   
Am  G  F  G
Am  G  F  G


CHORUS:
Am            G              C            F
 And it feels like I've been hit by a motorbike
A/G           G             Am  G F    G           Am   G
 Sure it's lonely, but it's sane and gentle on the brain
F                  G              Am G F    G           C
 Well, sure it's lonely but it's sane and gentle on the brain.



SOLO:
Guitar 2

e  | -3-------------------------------------------------------|
B  | ---------------------------------------------------------|
G  | ---------------------------------------------------------|
D  | -----0h2-0h2----------0h2-0h2-------5/10~--9--7--5--5/7~-|
A  | -------------3h2--------------3h2------------------------|
E  | ---------------------------------------------------------|

e  |  -------------------------------------------------------|
B  | --------------------------------------------------------|
G  | ----------------------------------------------2-2-0---2-|
D  | -5/7--5/7-5-2-0----2-2-0----------2-2-0-------2-2-0-2-2-|
A  | -------------------------3-0------------3-0---------3---|
E  | --------------------------------------------------------|



Enjoy!

Tabbed by: Mike Paulshock
Tap to rate this tab
 
# A B C D E F G H I J K L M N O P Q R S T U V W X Y Z