Song name
# A B C D E F G H I J K L M N O P Q R S T U V W X Y Z

Nightmare Of You - Dear Scene I Wish I Were Deaf tab

Song: Dear Scene, I Wish I Were Deaf
Artist: Nightmare of You
Album: Nightmare of You
Year: 2005

The tuning for this song is half a step down.

Intro/Verse 1

e------------------------------------------|
B------------------------------------------|
G-4-x-4-x-x-1-x-1-x-x-4-x-4-x-x-1-x-1--1-1-|
D-6-x-6-x-x-2-x-2-x-x-6-x-6-x-x-2-x-2--2-2-|
A-6-x-6-x-x-2-x-2-x-x-6-x-6-x-x-2-x-2--2-2-|
E-4-x-4-x-x-0-x-0-x-x-4-x-4-x-x-0-x-0--0-0-|

Chorus 1 x2

e-----------------------------------|
B-----------------------------------|
G-4-4-x-4-3-3-x-3-4-4-x-4-x-3-3-x-x-|
D-4-4-x-4-4-4-x-4-4-4-x-4-x-4-4-x-x-|
A-2-2-x-2-2-2-x-2-2-2-x-2-x-2-2-x-x-|
E-----------------------------------|

e-----------------------------------|
B-----------------------------------|
G-----------------------------------|
D-6-6-x-6-4-4-x-4-6-6-x-6-x-4-4-x-x-|
A-6-6-x-6-6-6-x-6-6-6-x-6-x-6-6-x-x-|
E-4-4-x-4-4-4-x-4-4-4-x-4-x-4-4-x-x-|

e-----------------------------------|
B-----------------------------------|
G-9-9-x-9-8-8-x-8-9-9-x-9-x-8-8-x-x-|
D-9-9-x-9-9-9-x-9-9-9-x-9-x-9-9-x-x-|
A-7-7-x-7-7-7-x-7-7-7-x-7-x-7-7-x-x-|
E-----------------------------------|

e----------------------------------------------|
B----------------------------------------------|
G-11-11-x-11-11-11-x-11-11-11-x-11-x-11-11-x-x-|
D-11-11-x-11-11-11-x-11-11-11-x-11-x-11-11-x-x-|
A-9--9--x-9-9-9----x-9-9---9--x-9--x-9--9--x-x-|
E----------------------------------------------|

Interlude:

e--------------------------------------------------------------------------|
B--------------------------------------------------------------------------|
G--------------------------------------------------------------------------|
D--------------------------6-4-------------------6-6-6-6-----6-6-6-6-------|
A-------6-4------------6-4-----6-4-------6-4-------------6-6---------6-6/4-|
E-4-6-7-----7-4--4-6-7-------------4-6-7-----7-4---------------------------|

Verse 2:

e------------------------------------------|
B------------------------------------------|
G-4-x-4-x-x-1-x-1-x-x-4-x-4-x-x-1-x-1--1-1-|
D-6-x-6-x-x-2-x-2-x-x-6-x-6-x-x-2-x-2--2-2-| x3
A-6-x-6-x-x-2-x-2-x-x-6-x-6-x-x-2-x-2--2-2-|
E-4-x-4-x-x-0-x-0-x-x-4-x-4-x-x-0-x-0--0-0-|

e-4----4-4-4-4-4-4-|
B-4----4-4-4-4-4-4-|
G-4----4-4-4-4-4-4-|
D-6----6-6-6-6-6-6-|
A-6----6-6-6-6-6-6-|
E-4----4-4-4-4-4-4-|

Chorus 1 x2

e-----------------------------------|
B-----------------------------------|
G-4-4-x-4-3-3-x-3-4-4-x-4-x-3-3-x-x-|
D-4-4-x-4-4-4-x-4-4-4-x-4-x-4-4-x-x-|
A-2-2-x-2-2-2-x-2-2-2-x-2-x-2-2-x-x-|
E-----------------------------------|

e-----------------------------------|
B-----------------------------------|
G-----------------------------------|
D-6-6-x-6-4-4-x-4-6-6-x-6-x-4-4-x-x-|
A-6-6-x-6-6-6-x-6-6-6-x-6-x-6-6-x-x-|
E-4-4-x-4-4-4-x-4-4-4-x-4-x-4-4-x-x-|

e-----------------------------------|
B-----------------------------------|
G-9-9-x-9-8-8-x-8-9-9-x-9-x-8-8-x-x-|
D-9-9-x-9-9-9-x-9-9-9-x-9-x-9-9-x-x-|
A-7-7-x-7-7-7-x-7-7-7-x-7-x-7-7-x-x-|
E-----------------------------------|

e----------------------------------------------|
B----------------------------------------------|
G-11-11-x-11-11-11-x-11-11-11-x-11-x-11-11-x-x-|
D-11-11-x-11-11-11-x-11-11-11-x-11-x-11-11-x-x-|
A-9--9--x-9-9-9----x-9-9---9--x-9--x-9--9--x-x-|
E----------------------------------------------|

Interlude 2:

e---------------------------------|
B---------------------------------|
G---------------------------------|
D---------6-6-6-6-----------------|
A-------6---------6-6-4-----------|
E-4-6-7-----------------7-6-7-6-4-|

Tremolo pick this part

e-----
B-----
G-4---
D-----
A---6-
E-----

I also tabbed out the strings for guitar if you want to use them:

e---------------------------------|
B---------------------------------|
G-------------6-6-----------------|
D-----6-6-9-9-----9-9-8-8-6-6-----| x4
A-6-6-------------------------7-7-|
E---------------------------------|

e-----|
B-----|
G-----|
D-----|
A-6-4-|
E-----|

Chorus 2 x2


e-----------------------------------|
B-----------------------------------|
G-6-6-x-6-5-5-x-5-6-6-x-6-x-5-5-x-x-|
D-6-6-x-6-6-6-x-6-6-6-x-6-x-6-6-x-x-|
A-4-4-x-4-4-4-x-4-4-4-x-4-x-4-4-x-x-|
E-----------------------------------|

e-----------------------------------|
B-----------------------------------|
G-----------------------------------|
D-8-8-x-8-6-6-x-6-8-8-x-8-x-6-6-x-x-|
A-8-8-x-8-8-8-x-8-8-8-x-8-x-8-8-x-x-|
E-6-6-x-6-6-6-x-6-6-6-x-6-x-6-6-x-x-|

e-----------------------------------------------|
B-----------------------------------------------|
G-11-11-x-11-10-10-x-10-11-11-x-11-x-10-10--x-x-|
D-11-11-x-11-11-11-x-11-11-11-x-11-x-11-11--x-x-|
A-9--9--x-9--9--9--x-9--9--9--x-9--x-9--9---x-x-|
E-----------------------------------------------|

e----------------------------------------------|
B----------------------------------------------|
G-13-13-x-13-13-13-x-13-13-13-x-13-x-13-13-x-x-|
D-13-13-x-13-13-13-x-13-13-13-x-13-x-13-13-x-x-|
A-11-11-x-11-11-11-x-11-11-11-x-11-x-11-11-x-x-|
E----------------------------------------------|

Outro

e-------------------------------------------------|
B-------------------------------------------------|
G-6-6-6-6-6-6-6-6-6-6-6-6-------------------------|
D-6-6-6-6-6-6-6-6-6-6-6-6-8-8-8-8-8-8-8-8-8-8-8-8-|
A-4-4-4-4-4-4-4-4-4-4-4-4-8-8-8-8-8-8-8-8-8-8-8-8-|
E-------------------------6-6-6-6-6-6-6-6-6-6-6-6-|

e-------------------------------------------------------|
B-------------------------------------------------------|
G-11-11-11-11-11-11-11-11-11-11-11-11-13-13-13-13-13-13-|
D-11-11-11-11-11-11-11-11-11-11-11-11-13-13-13-13-13-13-|
A-9--9--9--9--9--9--9--9--9--9--9--9--11-11-11-11-11-11-|
E-------------------------------------------------------|

e-9--8--6-|
B-9--8--6-|
G-9--8--6-|
D-11-10-8-|
A-11-10-8-|
E-9--8--6-|

That's it! Enjoy :)
Tap to rate this tab
# A B C D E F G H I J K L M N O P Q R S T U V W X Y Z