Song name
# A B C D E F G H I J K L M N O P Q R S T U V W X Y Z

Nightmare Of You - A Pair Of Blue Eyes tab

A Pair of Blue Eyes by Nightmare of You

FIRST PART
E|--12----------------------|
B|------15--------------15--|
G|----------14--12--14------|
D|--------------------------|
A|--------------------------|
E|--------------------------|      X6

E|--12----------------------|
B|------15------13------15--|
G|----------14------14------|
D|--------------------------|
A|--------------------------|
E|--------------------------|    X4


E|--12----------------------|
B|------15--------------15--|
G|----------14--12--14------|
D|--------------------------|
A|--------------------------|
E|--------------------------|     X6


E|--12----------------------|
B|------15------13------15--|
G|----------14------14------|
D|--------------------------|
A|--------------------------|
E|--------------------------|     X3

E|--12----------------------|
B|------15------12--12--12--|
G|----------14--------------|
D|--------------------------|
A|--------------------------|
E|--------------------------|


SECOND PART
E|--7------------7--------7-----10--15--15--|
B|-----8------------8--------8--------------|
G|--------9------------9--------------------|
D|-----------10-----------------------------|
A|------------------------------------------|
E|------------------------------------------|

E|--------------7--8------|
B|--10------10--------10--|
G|------10----------------|
D|------------------------|
A|------------------------|
E|------------------------|   X2

THIRD PART
E|--17--17--17--17--16--16--16--16--15--15--15--15--8--8--8--|
B|-----------------------------------------------------------|
G|-----------------------------------------------------------|
D|-----------------------------------------------------------|
A|-----------------------------------------------------------|
E|-----------------------------------------------------------|

FOURTH PART
E|--12----------------------|
B|------15------13------15--|
G|----------14------14------|
D|--------------------------|
A|--------------------------|
E|--------------------------|

E|----------15--12--------------------------10--|
B|------------------13--10--12--13--12--10------|
G|--12--14--------------------------------------|
D|----------------------------------------------|
A|----------------------------------------------|
E|----------------------------------------------|

E|--------------------------------|
B|--12--10------------------------|
G|----------12--10--9-------------|
D|---------------------12--10--9--|
A|--------------------------------|
E|--------------------------------|

E|------------------------------------------|
B|------------------------------------------|
G|-------------------------------9--10--12--|
D|--10--9--10--9--10--9--10--12-------------|
A|------------------------------------------|
E|------------------------------------------|

E|----------------------------------------------------------------------|
B|--13--13--12--12--10--10--------------------------10--10--12--12--13--|
G|--------------------------12--12--10--10--12--12----------------------|
D|----------------------------------------------------------------------|
A|----------------------------------------------------------------------|
E|----------------------------------------------------------------------|

And the solo is a c maj pentatonic scale
Tap to rate this tab
# A B C D E F G H I J K L M N O P Q R S T U V W X Y Z