Song name
# A B C D E F G H I J K L M N O P Q R S T U V W X Y Z

Nightmare Of You - I Want To Be Buried In Your Backyard tab

This song was tabbed by me after listening to the song for hours, this is not the
official tab, just a version that sounds about 99% correct by interpreting chord
shown in music videos and matching the sound. Please e-mail any corrections to
oceansurf583@yahoo.com or get me on AIM at: a dutch kid says.

Other than that; enjoy.

Guitar 1: EADGBe, Capo on 2
Guitar 2: EADGBe, Capo on 2

Signs:
~ - let ring
qc - quick change of chords
<> - altertnate picking

Intro:

Guitar 1:
e|----------------------|
B|---------10-----------|
G|------13----13--------|
D|---11-----------------|
A|----------------------|
E|----------------------|
                                 x2
e|----------------------|
B|---------10-----------|
G|------13----13--------|
D|---11---------11------|
A|----------------------|
E|----------------------|

e|----------------------|
B|---10~----------------|
G|---13~----------------|
D|---11~----------------|
A|----------------------|
E|----------------------|

Guitar 2
e|----------------------|
B|---5------------------|
G|-----4----------------|
D|-------5--4~----------|
A|----------------------|
E|----------------------|

Bridge:
Guitar 1:
e|----------------------|
B|---5----------5-------|
G|-----4------4---4-----|
D|-------5--4-------5---|
A|----------------------|
E|----------------------|

guitar 1 & 2

e|---3---3---3---3---3--|
B|---3---3---3---3---3--|
G|---x---2---x-------x--|
D|---2-------2-------2--|
A|---3-------2---2---3--|
E|-------2-------3------|

Chorus:

Guitar 2
                  qc
e|---3---3---3---3---3--|
B|---3---3---3---3---3--|
G|-------2-------2---x--|
D|-----------2-------2--|
A|---2-------2-------3--|
E|---3---2--------------|

Guitar 1

e|-------3------3---------3--------3------3--|
B|------3------3---------3-------3-------3---|
G|------------2----------------2-------------|
D|--------------------2----------------2-----|
A|----2-------------2----------------3-------|
E|---3------2--------------------------------|

Guitar 2
                  qc
e|---3---3---3---3---3--|
B|---3---3---3---3---3--|
G|-------2-------2---x--|
D|-----------2-------2--|
A|---2-------2-------3--|
E|---3---2--------------|

Guitar 1

e|-------3------3---------3--------3------3--|
B|------3------3---------3-------3-------3---|
G|------------2----------------2-------------|
D|--------------------2----------------2-----|
A|----2-------------2----------------3-------|
E|---3------2--------------------------------|

Pre-Verse

Guitar 1:
e|----------------------|
B|---------10-----------|
G|------13----13--------|
D|---11-----------------|
A|----------------------|
E|----------------------|
                                 x2
e|----------------------|
B|---------10-----------|
G|------13----13--------|
D|---11---------11------|
A|----------------------|
E|----------------------|

e|----------------------|
B|---10~----------------|
G|---13~----------------|
D|---11~----------------|
A|----------------------|
E|----------------------|

Guitar 2
e|----------------------|
B|---5------------------|
G|-----4----------------|
D|-------5--4~----------|
A|----------------------|
E|----------------------|

Verse:

Guitar 1:
e|----------------------|
B|---------10-----------|
G|------13----13--------|
D|---11-----------------|
A|----------------------|
E|----------------------|
                                 x2
e|----------------------|
B|---------10-----------|
G|------13----13--------|
D|---11---------11------|
A|----------------------|
E|----------------------|

e|----------------------|
B|---10~----------------|
G|---13~----------------|
D|---11~----------------|
A|----------------------|
E|----------------------|

Bridge:
Guitar 1:
e|----------------------|
B|---5----------5-------|
G|-----4------4---4-----|
D|-------5--4-------5---|
A|----------------------|
E|----------------------|

guitar 1 & 2

e|---3---3---3---3---3--|
B|---3---3---3---3---3--|
G|---x---2---x-------x--|
D|---2-------2-------2--|
A|---3-------2---2---3--|
E|-------2-------3------|

Chorus:

Guitar 2
                  qc
e|---3---3---3---3---3--|
B|---3---3---3---3---3--|
G|-------2-------2---x--|
D|-----------2-------2--|
A|---2-------2-------3--|
E|---3---2--------------|

Guitar 1

e|-------3------3---------3--------3------3--|
B|------3------3---------3-------3-------3---|
G|------------2----------------2-------------|
D|--------------------2----------------2-----|
A|----2-------------2----------------3-------|
E|---3------2--------------------------------|

Guitar 2
                  qc
e|---3---3---3---3---3--|
B|---3---3---3---3---3--|
G|-------2-------2---x--|
D|-----------2-------2--|
A|---2-------2-------3--|
E|---3---2--------------|

Guitar 1

e|-------3------3---------3--------3------3--|
B|------3------3---------3-------3-------3---|
G|------------2----------------2-------------|
D|--------------------2----------------2-----|
A|----2-------------2----------------3-------|
E|---3------2--------------------------------|

Solo:

Guitar 1

e|--------------------------|
B|--------------------------|
G|--------------------------|
D|--------------------------|
A|---0<>---2<>---5<>---7<>--| x2
E|--------------------------|

e|-------------------------------------------------------|
B|-------------------------------------------------------|
G|-------------------------------------------------------|
D|-------------------------------------------------------|
A|---5<>---7<>---3<>---2<>---3<>---2h-3p-2h-3p-2h-3p-2h--|
E|-------------------------------------------------------|

e|--------------------------|
B|--------------------------|
G|--------------------------|
D|--------------------------|
A|---0<>---2<>---5<>---7<>--| x2
E|--------------------------|

e|-------------------------------------------------------|
B|-------------------------------------------------------|
G|-------------------------------------------------------|
D|-------------------------------------------------------|
A|---5<>---7<>---3<>---2<>---3<>---2h-3p-2h-3p-2h-3p-2h--|
E|-------------------------------------------------------|

Guitar 2
                  qc
e|---3---3---3---3---3--|
B|---3---3---3---3---3--|
G|-------2-------2---x--| x4
D|-----------2-------2--|
A|---2-------2-------3--|
E|---3---2--------------|

Break:

Guitar 2

e|---3---3---3---3---3--|
B|---3---3---3---3---3--|
G|---x---2---x-------x--|
D|---2-------2-------2--|
A|---3-------2---2---3--|
E|-------2-------3------|

e|---3~---3~---3~---3~---3~--|
B|---3~---3~---3~---3~---3~--|
G|---x----2~---x---------x~--|
D|---2~--------2~--------2~--|
A|---3~--------2~---2~---3~--|
E|--------2~--------3~-------|

Chorus:

Guitar 2
                  qc
e|---3---3---3---3---3--|
B|---3---3---3---3---3--|
G|-------2-------2---x--|
D|-----------2-------2--|
A|---2-------2-------3--|
E|---3---2--------------|

Guitar 1

e|-------3------3---------3--------3------3--|
B|------3------3---------3-------3-------3---|
G|------------2----------------2-------------|
D|--------------------2----------------2-----|
A|----2-------------2----------------3-------|
E|---3------2--------------------------------|

Guitar 2
                  qc
e|---3---3---3---3---3--|
B|---3---3---3---3---3--|
G|-------2-------2---x--|
D|-----------2-------2--|
A|---2-------2-------3--|
E|---3---2--------------|

Guitar 1

e|-------3------3---------3--------3------3--|
B|------3------3---------3-------3-------3---|
G|------------2----------------2-------------|
D|--------------------2----------------2-----|
A|----2-------------2----------------3-------|
E|---3------2--------------------------------|

That's about it, if there is anything I missed please contact me, the solo is not 100% 
but sounds great live.
Tap to rate this tab
 
# A B C D E F G H I J K L M N O P Q R S T U V W X Y Z