Song name
# A B C D E F G H I J K L M N O P Q R S T U V W X Y Z

Nightmare Of You - Thumbelina tab

CAPO 1

Listen for strumming patterns please :)

Verse and intro
e|--0------0----0--0--0--0--0--0--------0------------0------1----3----------|
B|--1------1----1--1--1--1--1--1--------0------------1------3----5----------|
G|--2------0----0--0--0--0--0--0--------0------5-----2------3----5----------|
D|--3------2----0--0--0--3--2--0--------0------6-----2------3----5----------|
A|---------3----3--2--0--3--2--0--------2------7-----0------1----3----------|
E|--------------------------------------3-----------------------------------|


Prechorus

e|-5----3-----5----1-----1--------------------------------------------------|
B|-5----5-----5----1-----1--------------------------------------------------|
G|-5----5-----5----2-----1--------------------------------------------------|
D|-7----5-----7----3-----3--------------------------------------------------|
A|-----------------3-----3--------------------------------------------------|
E|-----------------1-----1--------------------------------------------------|

Chorus

e|---0---3---0-------1---1---3----0---0---0--||--------2--------------------|
B|---1---3---1-------1---1---3----1---1---1--||------1----------1-----------|
G|---0---0---2---0---2---1---0----0---0---2--||----2----------0-------------|
D|---2---0---2---2---3---3---0----2---0---2--||--0----------2---------------|
A|---3---2---0---2---3---3---2----3---2---0--||-----------3-----------------|
E|-------3-------0---1---1---3---------------||---------first time only-----|

Bridge

e|-------0-------0-------1-------1---------------------------------------|
B|-------1-------1-------1-------1---------------------------------------|
G|---0---2---0---2---0---2-------1---------------------------------------|
D|---2---2---2---2---2---3-------3---------------------------------------|
A|---2---0---2---0---2---3-------3---------------------------------------|
E|---0-------0-------0---1-------1----------------------------------------|


Outro

e|--1----0---|          |---1----1----0-------------------------------------|
B|--1----1---|          |---1----1----1-------------------------------------|
G|--2----0---|          |---2----1----0-------------------------------------|
D|--3----2---|repeat >< |---3----3----2-----------End :D--------------------|
A|--1----3---|          |---3----3----3-------------------------------------|
E|--1--------|          |---1----1------------------------------------------|






Chord progression

Intro/verse x3
Prechorus
Chorus + extra part
Verse x2
Prechorus
Chorus
Bridge
Chorus
Outro
Tap to rate this tab
 
# A B C D E F G H I J K L M N O P Q R S T U V W X Y Z