Song name
# A B C D E F G H I J K L M N O P Q R S T U V W X Y Z

Nightmare Of You - My Name Is Trouble tab

Help us improve GuitareTab! Take a short survey!
Song: My Name Is Trouble
Artist: Nightmare Of You
Album: Nightmare Of You

Tuning: I'm not sure what the actual tuning they used is, but I used standard tuning in tabbing this.

Intro:
|----10--10---|
|------14-----|
|-11----------|
|-------------|
|-------------|
|-------------|

|-------10--10-|
|---------14---|
|-11-11--------|x3
|--------------|
|--------------|
|--------------|

x2 all

then:
|----10--10--------10--10--------9----------9-----|
|------14------------14--------12-12------12-12---|
|-------------------------------------------------|
|-14----------14------------12---------12---------|
|-------------------------------------------------|
|-------------------------------------------------|

Or, that's how I think it is. I'm no expert.
I apologize if it's a bit confusing.
Enjoy it until someone comes up with a better tab[:
Just send any corrections to me at: goshdontlabelme@yahoo.com
Related for My Name Is Trouble tab