Song name
# A B C D E F G H I J K L M N O P Q R S T U V W X Y Z

Nightmare Of You - Heaven Runs On Oil tab

Nightmare Of You - Heaven Runs On Oil

Standard Tuning

Intro

Guitar 1
(0:00 - 0:05)
e|------------------------------------------|
B|------------------------------------------|
G|--0---0-4-0--0---0-4-0--------------------|
D|-2-2-4------2-2-4-------1--4-1--5-4--5-4--|
A|-----------------------2-2----2----2----2-|
E|------------------------------------------|

Guitar 1
(0:05 - 0:11)
e|-----0-5b-3-0----------------|
B|----0--------0----4-5-4--0---|
G|---2-------------4------2-2--|
D|--2-------------4------------|
A|-0-------------2-------------|
E|-----------------------------|

Verse

Guitar 1
(0:11 - 0:47)
e|-------------------------------------------|
B|----7--8-------3--5------0----5----4-5-4---|
G|---9----9-----5----5----2----5----4-----4--|
D|--9------9---5------5--2----5----4-------4-| x3
A|-7----------3---------0----3----2----------|
E|-------------------------------------------|

Keyboard
(0:11 - 0:45)
e|---------------------------------------------------------------|
B|------------------------10~-13~-12~--------10~-12~-13~-17~-16~-|
G|-9~----------------9~---------------9~-------------------------|
D|----10~--7~-10~-9~----10~--------------10~---------------------|
A|---------------------------------------------------------------|
E|---------------------------------------------------------------|

Pre-Chorus

Guitars 1 and 2
(0:47 - 0:53)
e|--7--7-------------3~--2~-|
B|--7--7-------------5~--3~-|
G|--9--9--11-11------5~--2~-|
D|--9--9--11-11--2~--5~--0~-|
A|--7--7--9--9---2~--3~-----|
E|---------------0~---------|

Guitar 1
(0:53 - 1:02)
e|--7--7------------------3---------------|
B|--7--7-----------------4-4-------7----7-|
G|--9--9--11-11---------5---5-----7----8--|
D|--9--9--11-11--2~----5-----5---7----8---|
A|--7--7--9--9---2~---3---------5----6----|
E|---------------0~-----------------------|

Guitar 2
(0:53 - 1:02)
e|--7--7--------------3~---2~-3~-|
B|--7--7--------------5~---3~-4~-|
G|--9--9--11-11-------5~---2~-3~-|
D|--9--9--11-11--2~---5~---0~----|
A|--7--7--9--9---2~---3~---------|
E|---------------0~--------------|

Chorus

Guitar 2
(1:02 - 1:14)
e|-3~--2~--0~--2~--3~--0~--2~-3~-|
B|-3~--3~--1~--3~--3~--1~--3~-4~-|
G|-0~--2~--0~--2~--0~--0~--2~-3~-|
D|-0~--0~--2~--0~--0~--2~--0~----|
A|-2~------3~------2~--3~--------|
E|-3~--------------3~------------|

Verse

Guitar 1
(1:14 - 1:26)
e|-------------------------------------------------------------|
B|-------------------------------------------------------------|
G|--4-2------------4-2------------4-2--------------4-2---------|
D|------5-4-2-4-5------5-4-2-4-5------5-4-2-4-5-4------5-4-2~--|
A|-------------------------------------------------------------|
E|-------------------------------------------------------------|

Guitar 2
(1:17 - 1:26)
e|------------------------------------|
B|------------------------------------|
G|------------------------------------|
D|------------------------------------|
A|--3---3-2-0--3-3-5-3-2~--2-0--------|
E|---3-------0-----------------3-2-0~-|

Guitar 1
(1:26 - 1:49)
e|--7-7-7-7-3-3-3-3---------------------------------------|
B|--7-7-7-7-5-5-5-5-----1------------------7/8-8-7-5-7-5--|
G|--9-9-9-9-5-5-5-5----2-2-----5-------4------------------|
D|--9-9-9-9-5-5-5-5-2-2---2---5-5-----4-4-----------------| x2
A|--7-7-7-7-3-3-3-3-0------0-3---3-0-2---2----------------|
E|--------------------------------------------------------|

Guitar 2
(1:39)
e|--7~--|
B|--7~--|
G|--9~--|
D|--9~--| 
A|--7~--|
E|------|

Pre-Chorus

Guitars 1 and 2
(1:50 - 1:55)
e|--7--7-------------3~--2~-|
B|--7--7-------------5~--3~-|
G|--9--9--11-11------5~--2~-|
D|--9--9--11-11--2~--5~--0~-|
A|--7--7--9--9---2~--3~-----|
E|---------------0~---------|

Guitar 1
(1:56 - 2:10)
e|--7--7------------------3---------------------3----------------|
B|--7--7-----------------4-4-------7-8-7-------4-4-------7----7--|
G|--9--9--11-11---------5---5-----7-----7-----5---5-----7----8---|
D|--9--9--11-11--2~----5-----5---7-------7---5-----5---7----8----|
A|--7--7--9--9---2~---3---------5-----------3---------5----6-----|
E|---------------0~----------------------------------------------|

Guitar 2
(1:56 - 2:10)
e|--7--7--------------3~---2~--3-3-3-3-3-3-3-3-2-2-2-2-3-3-3-3--|
B|--7--7--------------5~---3~--5-5-5-5-5-5-5-5-3-3-3-3-4-4-4-4--|
G|--9--9--11-11-------5~---2~--5-5-5-5-5-5-5-5-2-2-2-2-3-3-3-3--|
D|--9--9--11-11--2~---5~---0~--5-5-5-5-5-5-5-5-0-0-0-0----------|
A|--7--7--9--9---2~---3~-------3-3-3-3-3-3-3-3------------------|
E|---------------0~---------------------------------------------|

Chorus

Guitar 1
(2:11 - 2:16)
e|---------------------------------------------------------------|
B|-12--12-12-12-12--10--10-10-10-10--8--8-8-8-8--10--10-10-10-10-|
G|---------------------------------------------------------------|
D|---------------------------------------------------------------|
A|---------------------------------------------------------------|
E|---------------------------------------------------------------|

Guitar 2
(2:11 - 2:16)
e|-3--3-3-3-3--2--2-2-2-2--0--0-0-0-0--2--2-2-2-2-|
B|-3--3-3-3-3--3--3-3-3-3--1--1-1-1-1--3--3-3-3-3-|
G|-0--0-0-0-0--2--2-2-2-2--0--0-0-0-0--2--2-2-2-2-|
D|-0--0-0-0-0--0--0-0-0-0--2--2-2-2-2--0--0-0-0-0-|
A|-2--2-2-2-2--------------3--3-3-3-3-------------|
E|-3--3-3-3-3-------------------------------------|

Guitar 1
(2:16 - 2:22)
e|-----------------/15--15-15-15--15-14--14-14-15-14-15-14-15-14\|
B|-10/15--15-15-15-----------------------------------------------|
G|---------------------------------------------------------------|
D|---------------------------------------------------------------|
A|---------------------------------------------------------------|
E|---------------------------------------------------------------|

Guitar 2
(2:16 - 2:22)
e|-3--3-3-3-3--0--0-0-0-0--2--2-2-2-2--2--2-2-2-2-|
B|-3--3-3-3-3--1--1-1-1-1--3--3-3-3-3--3--3-3-3-3-|
G|-0--0-0-0-0--0--0-0-0-0--2--2-2-2-2--2--2-2-2-2-|
D|-0--0-0-0-0--2--2-2-2-2--0--0-0-0-0--0--0-0-0-0-|
A|-2--2-2-2-2--3--3-3-3-3-------------------------|
E|-3--3-3-3-3-------------------------------------|

Guitar 1
(2:22 - 2:28)
e|---------------------------------------------------------------|
B|-12--12-12-12-12--10--10-10-10-10--8--8-8-8-8--10--10-10-10-10-|
G|---------------------------------------------------------------|
D|---------------------------------------------------------------|
A|---------------------------------------------------------------|
E|---------------------------------------------------------------|

Guitar 2
(2:22 - 2:28)
e|-3--3-3-3-3--2--2-2-2-2--0--0-0-0-0--2--2-2-2-2-|
B|-3--3-3-3-3--3--3-3-3-3--1--1-1-1-1--3--3-3-3-3-|
G|-0--0-0-0-0--2--2-2-2-2--0--0-0-0-0--2--2-2-2-2-|
D|-0--0-0-0-0--0--0-0-0-0--2--2-2-2-2--0--0-0-0-0-|
A|-2--2-2-2-2--------------3--3-3-3-3-------------|
E|-3--3-3-3-3-------------------------------------|

Guitar 1
(2:28 - 2:34)
e|-----------------/15--15-15-15--15-14--14-14-15~-|
B|-10/15--15-15-15---------------------------------|
G|-------------------------------------------------|
D|-------------------------------------------------|
A|-------------------------------------------------|
E|-------------------------------------------------|

Guitar 2
(2:28 - 2:34)
e|-3--3-3-3-3--0--0-0-0-0--2--2-2-2-2--3~-|
B|-3--3-3-3-3--1--1-1-1-1--3--3-3-3-3--4~-|
G|-0--0-0-0-0--0--0-0-0-0--2--2-2-2-2--3~-|
D|-0--0-0-0-0--2--2-2-2-2--0--0-0-0-0-----|
A|-2--2-2-2-2--3--3-3-3-3-----------------|
E|-3--3-3-3-3-----------------------------|

Guitar Solo

Guitar 1
(2:34 - 2:46)
e|-----------7b-7p5--------------7b-12--12--12-------|
B|------8-10--------8-------8-10------12--12--12-10b-|
G|--7-9--------------9--7-9--------------------------|
D|---------------------------------------------------|
A|---------------------------------------------------|
E|---------------------------------------------------|

Guitar 2
(2:34 - 2:46)
e|--0~--2~--3~--7~--|
B|--1~--4~--4~--7~--|
G|--0~--4~--3~--9~--|
D|--2~--4~------9~--| x2
A|--3~--2~------7~--|
E|------------------|

Bridge

Guitar 2
(2:46 - 3:04)
e|--0-0-0-0-0-0-2-2-2-2-2-2-3-3-3-3-3-3-7-7-7-7-7-7-|
B|--1-1-1-1-1-1-4-4-4-4-4-4-4-4-4-4-4-4-7-7-7-7-7-7-|
G|--0-0-0-0-0-0-4-4-4-4-4-4-3-3-3-3-3-3-9-9-9-9-9-9-|
D|--2-2-2-2-2-2-4-4-4-4-4-4-------------9-9-9-9-9-9-| x3
A|--3-3-3-3-3-3-2-2-2-2-2-2-------------7-7-7-7-7-7-|
E|--------------------------------------------------|

Guitar 1
(2:59 - 3:04)
e|----------------------------------------|
B|--12-12-12-12-12-12-12-12- x3 --12-10b--|
G|----------------------------------------|
D|----------------------------------------|
A|----------------------------------------|
E|----------------------------------------|

Guitar 1
(3:04 - 3:10)
e|-------------------------------------------------------------|
B|--12-12-12-12-12-12-12-12- x2 --15-15-15-15-15-15-15-15- x2 -|
G|-------------------------------------------------------------|
D|-------------------------------------------------------------|
A|-------------------------------------------------------------|
E|-------------------------------------------------------------|

Guitar 2
(3:04 - 3:10)
e|--0-0-0-0-0-0-2-2-2-2-2-2-3-3-3-3-3-3-3-3-3-3-3-3-|
B|--1-1-1-1-1-1-4-4-4-4-4-4-4-4-4-4-4-4-4-4-4-4-4-4-|
G|--0-0-0-0-0-0-4-4-4-4-4-4-3-3-3-3-3-3-3-3-3-3-3-3-|
D|--2-2-2-2-2-2-4-4-4-4-4-4-------------------------|
A|--3-3-3-3-3-3-2-2-2-2-2-2-------------------------|
E|--------------------------------------------------|

Guitar 1
(3:10 - 3:13)
e|--15-15-15-15-15-15-15-15-15-15-15-15-15-15-15-15-15-15-15-15--|
B|---------------------------------------------------------------|
G|---------------------------------------------------------------|
D|---------------------------------------------------------------|
A|---------------------------------------------------------------|
E|---------------------------------------------------------------|

Guitar 2
(3:10 - 3:13)
e|--3-3-3-3-3-3-3-3-3-3-3-3-3-3-3-3-3-3-3-3-3-3-3-3-|
B|--4-4-4-4-4-4-4-4-4-4-4-4-4-4-4-4-4-4-4-4-4-4-4-4-|
G|--3-3-3-3-3-3-3-3-3-3-3-3-3-3-3-3-3-3-3-3-3-3-3-3-|
D|--------------------------------------------------|
A|--------------------------------------------------|
E|--------------------------------------------------|

Chorus

Guitar 1
(3:13 - 3:19)
e|---------------------------------------------------------------|
B|-12--12-12-12-12--10--10-10-10-10--8--8-8-8-8--10--10-10-10-10-|
G|---------------------------------------------------------------|
D|---------------------------------------------------------------|
A|---------------------------------------------------------------|
E|---------------------------------------------------------------|

Guitar 2
(3:13 - 3:19)
e|-3--3-3-3-3--2--2-2-2-2--0--0-0-0-0--2--2-2-2-2-|
B|-3--3-3-3-3--3--3-3-3-3--1--1-1-1-1--3--3-3-3-3-|
G|-0--0-0-0-0--2--2-2-2-2--0--0-0-0-0--2--2-2-2-2-|
D|-0--0-0-0-0--0--0-0-0-0--2--2-2-2-2--0--0-0-0-0-|
A|-2--2-2-2-2--------------3--3-3-3-3-------------|
E|-3--3-3-3-3-------------------------------------|

Guitar 1
(3:19 -3:25)
e|-----------------/15--15-15-15--15-14--14-14-15-14-15-14-15-14\|
B|-10/15--15-15-15-----------------------------------------------|
G|---------------------------------------------------------------|
D|---------------------------------------------------------------|
A|---------------------------------------------------------------|
E|---------------------------------------------------------------|

Guitar 2
(3:19 -3:25)
e|-3--3-3-3-3--0--0-0-0-0--2--2-2-2-2--2--2-2-2-2-|
B|-3--3-3-3-3--1--1-1-1-1--3--3-3-3-3--3--3-3-3-3-|
G|-0--0-0-0-0--0--0-0-0-0--2--2-2-2-2--2--2-2-2-2-|
D|-0--0-0-0-0--2--2-2-2-2--0--0-0-0-0--0--0-0-0-0-|
A|-2--2-2-2-2--3--3-3-3-3-------------------------|
E|-3--3-3-3-3-------------------------------------|

Guitar 1
(3:25 - 3:31)
e|---------------------------------------------------------------|
B|-12--12-12-12-12--10--10-10-10-10--8--8-8-8-8--10--10-10-10-10-|
G|---------------------------------------------------------------|
D|---------------------------------------------------------------|
A|---------------------------------------------------------------|
E|---------------------------------------------------------------|

Guitar 2
(3:25 - 3:31)
e|-3--3-3-3-3--2--2-2-2-2--0--0-0-0-0--2--2-2-2-2-|
B|-3--3-3-3-3--3--3-3-3-3--1--1-1-1-1--3--3-3-3-3-|
G|-0--0-0-0-0--2--2-2-2-2--0--0-0-0-0--2--2-2-2-2-|
D|-0--0-0-0-0--0--0-0-0-0--2--2-2-2-2--0--0-0-0-0-|
A|-2--2-2-2-2--------------3--3-3-3-3-------------|
E|-3--3-3-3-3-------------------------------------|

Guitar 1
(3:31 - 3:37)
e|-----------------/15--15-15-15--15-14--14-14-15~-|
B|-10/15--15-15-15---------------------------------|
G|-------------------------------------------------|
D|-------------------------------------------------|
A|-------------------------------------------------|
E|-------------------------------------------------|

Guitar 2
(3:31 - 3:37)
e|-3--3-3-3-3--0--0-0-0-0--2--2-2-2-2--3~-|
B|-3--3-3-3-3--1--1-1-1-1--3--3-3-3-3--4~-|
G|-0--0-0-0-0--0--0-0-0-0--2--2-2-2-2--3~-|
D|-0--0-0-0-0--2--2-2-2-2--0--0-0-0-0-----|
A|-2--2-2-2-2--3--3-3-3-3-----------------|
E|-3--3-3-3-3-----------------------------|

Guitar Solo

Guitar 1
(3:37 - 3:49)
e|-----------7b-7p5--------------7b-12--12--12---------|
B|------8-10--------8-------8-10------12--12--12-8-10b-|
G|--7-9--------------9--7-9----------------------------|
D|-----------------------------------------------------|
A|-----------------------------------------------------|
E|-----------------------------------------------------|

Guitar 1
(3:49 - 4:00)
e|--------------------------------------7b-12--12--12---15-|
B|--5-5-5-5-5-5-5/7b-3-3-3/5-5-----8-10------12--12--12----|
G|-----------------------------7-9-------------------------|
D|---------------------------------------------------------|
A|---------------------------------------------------------|
E|---------------------------------------------------------|

Guitar 2
(3:37 - 4:00)
e|--0~--2~--3~--7~--|
B|--1~--4~--4~--7~--|
G|--0~--4~--3~--9~--|
D|--2~--4~------9~--| x4
A|--3~--2~------7~--|
E|------------------|

Outro

Guitar 1
(4:00 - 4:12)
e|--------------------------------------------------------|
B|--------------------------------------------------------|
G|--9-14---9-7---9-14---9-7b---7--7-7-7-7----7--7-7-7-7\--|
D|--------------------------------------------------------|
A|--------------------------------------------------------|
E|--------------------------------------------------------|

Guitar 1
(4:13 - 4:25)
e|---------------------------------------------------------------|
B|---------------------------------------------------------------|
G|--9--7---------------------------------------------------------|
D|--------9-7--9--7--7-------------------------------------------|
A|-----------10----10-10----7---9-10-9---9-10-9-7----7--7~-9b-7~-|
E|------------------------10-10--------10----------10-10---------|

Keyboard
(4:10 - 4:22)
e|----------------------------------10----12-10--15-14--|
B|---------------------------12-10-----12---------------|
G|----------7----9-7--12-11-----------------------------|
D|--7~-9-7----9-----------------------------------------|
A|------------------------------------------------------|
E|------------------------------------------------------|

Keyboard
(4:22 - 4:26)
e|--17-15-19b---17-15-17-15-17-19-19-19b~--|
B|-----------------------------------------|
G|-----------------------------------------|
D|-----------------------------------------|
A|-----------------------------------------|
E|-----------------------------------------|

Guitar 1
(4:25 - 4:36)
e|---------------------------------------|
B|---------------------------------------|
G|---7--7--7--7--7------------/12~--14~--|
D|-------------------7--7-9b-------------|
A|---------------------------------------|
E|---------------------------------------|

Guitar 1
(4:36 - 4:43)
e|---------------------------------------------------------------|
B|---------------------------------------------------------------|
G|-12-11-12-11-12-11--14-11-14-11~--11-12-11-12-11--14-11-14-11--|
D|---------------------------------------------------------------|
A|---------------------------------------------------------------|
E|---------------------------------------------------------------|

Guitar 1
(4:43 - 4:47)
e|---------------------------------------12h14p12-------|
B|------------------------------------12----------------|
G|--11-12-11-12-11--14-11-14-11~---11-------------------|
D|-------------------------------------------------12~--|
A|------------------------------------------------------|
E|------------------------------------------------------|

Guitar 2
(4:00 - 4:46)
e|--0-0-0-0-0-0-2-2-2-2-2-2-3-3-3-3-3-3-7-7-7-7-7-7-|
B|--1-1-1-1-1-1-4-4-4-4-4-4-4-4-4-4-4-4-7-7-7-7-7-7-|
G|--0-0-0-0-0-0-4-4-4-4-4-4-3-3-3-3-3-3-9-9-9-9-9-9-|
D|--2-2-2-2-2-2-4-4-4-4-4-4-------------9-9-9-9-9-9-| x8
A|--3-3-3-3-3-3-2-2-2-2-2-2-------------7-7-7-7-7-7-|
E|--------------------------------------------------|

Guitar 2
End On
(4:47)
e|-7~-|
B|-7~-|
G|-9~-|
D|-9~-|
A|-7~-|
E|-0~-|
Tap to rate this tab
 
# A B C D E F G H I J K L M N O P Q R S T U V W X Y Z