Song name
# A B C D E F G H I J K L M N O P Q R S T U V W X Y Z

Nightmare - Tokyo Shounen tab


solo (2:22)

[-------------------7--------7-----10--8--7------7~------]
[--8--7----7--8-------10--8------------------10----------]
[--------9-----------------------------------------------]
[--------------------------------------------------------]
[--------------------------------------------------------]
[--------------------------------------------------------]

[-------------------7------------------------------------]
[--8--7----7--8--------10--8--10-8-----------------------]
[--------9--------------------------9--7--8--9~----------]
[--------------------------------------------------------]
[--------------------------------------------------------]
[--------------------------------------------------------]

[----------------14-15-12---19(20)-19(20)-17-------------]
[-------12-13-15-----------------------------------------]
[-12-14--------------------------------------------------]
[--------------------------------------------------------]
[--------------------------------------------------------]
[--------------------------------------------------------]

[-19h20-19-17-19-17-15-17-15-14-15-14-11-12-19/-12\------]
[--------------------------------------------------------]
[--------------------------------------------------------]
[--------------------------------------------------------]
[--------------------------------------------------------]
[--------------------------------------------------------]
Tap to rate this tab
 
# A B C D E F G H I J K L M N O P Q R S T U V W X Y Z