Nightstalker - The Pulse Of The Hunter tab

All single notes on the E string are palm muted.
I wrote this song for my band.
It is an instrumental.
numbers in brackets are natural harmonics.


Intro
               x4                                           x2
|------------------------------------------------|------------------------|
|------------------------------------------------|------------------------|
|------------------------------------------------|------------------------|
|------------------------------------------------|------------------------|
|----------------------------------------------14|----------------------14|
|-0--0--0--0--0--0--0--0--0--0--0--0--0--0--0--12|-0--0--0--0--0--0--0--12|

bridge
         x2                                         x2
|----------------------------------|----------------------------------|
|----------------------------------|----------------------------------|
|----------------------------------|----------------------------------|
|----------------------------------|----------------------------------|
|-------------2------5-------------|-------------2----5/7-------------|
|-0--0--0--0--0----0-3--0--0--0--0-|-0--0--0--0--0----3/5--0--0--0--0-|

                                   x2
|-----------------------------------------------------------------------|
|-----------------------------------------------------------------------|
|-----------------------------------------------------------------------|
|-----------------------------------------------------------------------|
|-------------2-------8/7-8/7-8/7-8/7--2--------5-------8/7-8/7-8/7-8/7-|
|-0--0--0--0--0----0--6/5-6/5-6/5-6/5--0--0--0--3----0--6/5-6/5-6/5-6/5-|

verse 1

|-----------------------|-------------------|-----------------------|
|-----------------------|-------------------|-----------------------|
|-----------------------|-------------------|-----------------------|
|-----------------------|-------------------|-----------------------|
|--------5-------7-----8|--------5---------2|--------5-------7-----8|
|-0--0-0-3-0-0-0-5-0-0-6|-0--0-0-3-0-0-0-0-0|-0--0-0-3-0-0-0-5-0-0-6|

|--------------------|
|--------------------|
|--------------------|
|------------------4-|    x2
|--------5---------2-|
|-0--0-0-3-0-0-0-0---|

chorus

|---------------------|---------------------|---------------------------|
|---------------------|---------------------|---------------------------|
|---------------------|---------------------|---------------------------|
|---------------------|---------------------|---------------------------|
|-2-------------------|-4-------------------|-5--------------------7----|
|-0--0--0--0--0--0--0-|-2--2--2--2--2--2--2-|-3--3--3--3--3--3--3--5--5-|

|-------------|---------------------|---------------------|
|-------------|---------------------|---------------------|
|-------------|---------------------|---------------------|
|-7---5---4---|---------------------|---------------------|
|-5---3---2-2-|-------------------4-|-------------------5-|
|---0---0---0-|-0--0--0--0--0--0--2-|-2--2--2--2--2--2--3-|

|------------------------|-------------|-------------------|---------------|
|------------------------|-------------|-------------------|---------------|
|------------------------|-------------|-------------------|---------------|
|------------------------|-7---5---4---|-------------------|---------------|
|-------------------7----|-5---3---2-2-|-----------------4-|-------------5-|
|-3--3--3--3--3--3--5--5-|---0---0---0-|-00000000000000002-|-2222222222223-|

|------------------|--------------|---------------|--------------------|
|------------------|--------------|---------------|--------------------|
|------------------|--------------|---------------|--------------------|
|------------------|-7---5---4----|---------------|--------------------|
|-------------7----|-5---3---2-2--|--2----2----2--|--4----4----4----4--|
|-3333333333335--5-|---0---0---0--|--0----0----0--|--2----2----2----2--|

|--------------------|---------|----------------------|
|--------------------|---------|----------------------|
|--------------------|---------|----------------------|
|--------------------|---------|-7---5---4------------|
|--5----5----5----5--|--7----7-|-5---3---2-2-sustain--|
|--3----3----3----3--|--5----5-|-----------0----------|

verse 2

|----------------|-------------|------------------|--------------------|
|----------------|-------------|------------------|--------------------|
|----------------|-------------|------------------|--------------------|  x2
|----------------|-------------|------------------|----------4-sustain-|
|-----5----7---8-|----5-----2--|------5-----7---8-|----5-----2---------|
|-0-003-0005-006-|0-003-00000--|--0-003-00005-006-|0-003-0000----------|

solo

|-(12)----(7)----(5)--|-------------------------------------------------|
|-(12)----(7)----(5)--|-------------------------------------------------|
|-(12)----(7)----(5)--|-------------------------------------------------|
|-(12)----(7)----(5)--|--------------------------------------12--14-----|
|-(12)----(7)----(5)--|--------------12--14------12--14--15----------15-|
|-(12)----(7)----(5)--|--12--14--15----------15-------------------------|

|-------------------------------------------------------------12--14-----|
|-------------------------------------12--13------12--13--15----------15-|
|-------------12--14------11--12--14----------14-------------------------|
|-12--14--16----------16-------------------------------------------------|
|------------------------------------------------------------------------|
|------------------------------------------------------------------------|

|-12--14--15p14p12-15p14p12-15p14p12-15p14p12----------------------------|
|---------------------------------------------15p13p12-15p13p12-15p13p12-|
|------------------------------------------------------------------------|
|------------------------------------------------------------------------|
|------------------------------------------------------------------------|
|------------------------------------------------------------------------|

|---------15p14p12-15p14p12p-15p14p12-15p14p12---------------------------|
|15p13p12--------------------------------------15p13p12-15p13p12-15p13p12|
|------------------------------------------------------------------------|
|------------------------------------------------------------------------|
|------------------------------------------------------------------------|
|------------------------------------------------------------------------|

|----------12-15-14-12-17-15-14-19-17-15-21-19-17-22-21-19-21-22b-22b-22b|
|-15p13p12---------------------------------------------------------------|
|------------------------------------------------------------------------|
|------------------------------------------------------------------------|
|------------------------------------------------------------------------|
|------------------------------------------------------------------------|

|-22p21\19-21p19\17-19p17\15-17p15\14-15p14\12-14p12\10-12p10\9-10p9\7-|
|----------------------------------------------------------------------|
|----------------------------------------------------------------------|
|----------------------------------------------------------------------|
|----------------------------------------------------------------------|
|----------------------------------------------------------------------|

|9p7\5-7p5\3-5p3\2-3p2p0h2h3p2p0h2h3p2p0h2h3p2p0|
|-----------------------------------------------|
|-----------------------------------------------|
|-----------------------------------------------|
|-----------------------------------------------|
|-----------------------------------------------|

song order:

intro x1
bridge x1
verse 1 x1
chorus x1
verse 2 x1
chorus x1
solo x1
chorus x1
verse 1 x1
end with:

|-----xx-----|
|-----xx-----|
|-----xx-----|
|-----xx-----|
|-7/8-xx-5/2-|
|-6/5-xx-3/0-|
Tap to rate this tab
 
# A B C D E F G H I J K L M N O P Q R S T U V W X Y Z