Song name
# A B C D E F G H I J K L M N O P Q R S T U V W X Y Z

Nightwish - Whoever Brings The Night tab

Song: Whoever Brings the Night
Artist: Nightwish
Album: Dark Passion Play
Tuning: C Standard 


Intro
|-----------------------------------------------------------------------------|
|-----------------------------------------------------------------------------|
|-----------------------------------------------------------------------------|
|-----12----12-----12-----12-----12p10-----10-----10-----10-----10-----10p9--|
|-0-0---0-0----0-0----0-0----0-0-------0-0----0-0----0-0----0-0----0-0-------|
|-----------------------------------------------------------------------------|
  PM|   - -    - -    - -    - -       - -    - -    - -    - -    - -

|-------------------------------------------------------------------------|
|-------------------------------------------------------------------------|
|-------------------------------------------------------------------------|
|-----10-----10-----9------9--12-10-9-----10-----10-----9-----9--12-10-9--|
|-0-0---0-0----0-0----0-0-------------0-0----0-0----0-0---0-0-------------|
|-------------------------------------------------------------------------|
  PM|   - -    - -    - -             - -    - -    - -   - - 

|-----------------------------------------------------------------------------|
|-----------------------------------------------------------------------------|
|-----------------------------------------------------------------------------|
|-----12----12-----12-----12-----12p10-----10-----10-----10-----10-----10p9--|
|-0-0---0-0----0-0----0-0----0-0-------0-0----0-0----0-0----0-0----0-0-------|
|-----------------------------------------------------------------------------|
  PM|   - -    - -    - -    - -       - -    - -    - -    - -    - -

|-------------------------------------------------------------------------|
|-------------------------------------------------------------------------|
|-------------------------------------------------------------------------|
|-----10-----10-----9------9--12-10-9-----10-----10-----9-----9--12-10-9--|
|-0-0---0-0----0-0----0-0-------------0-0----0-0----0-0---0-0-------------|
|-------------------------------------------------------------------------|
  PM|   - -    - -    - -             - -    - -    - -   - - 


Verse
|------------------------------------------------------------|
|------------------------------------------------------------|
|-----------------------------------------5---5-----5--------|
|-----------------------------------4-7-5-3-5-3-5\4-3--------|
|-2--22-3\2--22-22-3\2--22-22-3\2---2-5-3---3---3\2----------|
|-0--00-1\0--00-00-1\0--00-00-1\0----------------------------|
  PM|--      -- --      -- -- 

|------------------------------------------------------------|
|------------------------------------------------------------|
|---------------------------------4-6-7-9--------------------|
|---------------------------------x-x-x-x--------------------|
|-2--22-3\2--22-22-3\2--22-22-3\2-2-4-5-7--------------------|
|-0--00-1\0--00-00-1\0--00-00-1\0----------------------------|
  PM|--      -- --      -- -- 

|------------------------------------------------------------|
|------------------------------------------------------------|
|-----------------------------------------5---5-----5--------|
|-----------------------------------4-7-5-3-5-3-5\4-3--------|
|-2--22-3\2--22-22-3\2--22-22-3\2---2-5-3---3---3\2----------|
|-0--00-1\0--00-00-1\0--00-00-1\0----------------------------|
  PM|--      -- --      -- -- 

|------------------------------------------------------------|
|------------------------------------------------------------|
|---------------------------------4-6-7-9--8--7--5-x-4-x-4---|
|---------------------------------x-x-x-x--x--x--x-x-4-x-4---|
|-2--22-3\2--22-22-3\2--22-22-3\2-2-4-5-7--6--5--3-x-2-x-2---|
|-0--00-1\0--00-00-1\0--00-00-1\0----------------------------|
  PM|--      -- --      -- -- 


Chorus
|--------------------------------------------|
|--------------------------------------------|
|-9----9\7-7-9---9---9----9\7-7-10-----10----|
|-9-10-9\7-7-9-999---9-10-9\7-7-10-101010----|
|-7-10-7\5-5-7-777---7-10-7\5-5-8--8-8-8-----|
|---8------------------8---------------------|
 PM|           --                  - -

|--------------------------------------------|
|--------------------------------------------|
|-9----9\7-7-9---9---9----9\7-7-10~----------|
|-9-10-9\7-7-9-999---9-10-9\7-7-10~----------|
|-7-10-7\5-5-7-777---7-10-7\5-5-8-~----------|
|---8------------------8---------------------|
PM|            --

Repeat Intro
Second Verse (it's the same)
Repeat Chorus


Bridge 2:32
2x
|---------------------------------------------------------------------|
|---------------------------------------------------------------------|
|---------------------------------------------------------------------|
|---------------------------------------------------------------------|
|-999999-999999999999-999999-999999999999-999999-999999777777-777777--|
|-777777-777777777777-777777-777777777777-777777-777777555555-555555--|
  PM|--- ------------ ------ ------------ ------ ------------ ------ 

2:43
2x
|---------------------------------------------------------------|
|---------------------------------------------------------------|
|---------------------------------------------------7----5------|
|---------------------------------------------------7----5------|
|-222222--222-222--222222--222-222--222222--222-222-5----3------|
|-000000--000-000--000000--000-000--000000--000-000-------------|
  PM|---  --- ---  ------  --- ---  ------  --- ---

Repeat Bridge 2:32 

3:07
|-----------------------------------------------------------------------------|
|-----------------------------------------------------------------------------|
|-----------------------------------------------------------------------------|
|-----------------------------------------------------------------------------|
|-2222-2222-22222222-2222-2222-22222222-2222-2222-22222222-2222-2222-22222222-|
|-0000-0000-00000000-0000-0000-00000000-0000-0000-00000000-0000-0000-00000000-|
  PM|- ---- -------- ---- ---- -------- ---- ---- -------- ---- ---- -------- 


Solo at 3:19
|------------------------------------------------19-15-21-19-20~----|
|---------------------------------------11-13-11--------------------|
|--------------------------4-5p4-11-9-8-----------------------------|
|-----------------------4h5-----------------------------------------|
|--------------------4h5--------------------------------------------|
|-7p5-5-7p5-5p4-4-4h5-----------------------------------------------|

|--------------------------------------------------------------------19-20-17.---|
|-----------------------------17/18-18-------------------------------------------|
|-13/14\13--12/13/14\13---15.-------------------------17-17*---------------------|
|-14/15\14--13/14/15\14---16.-----------16h17-------16--------15-15*-------------|
|---------------------------------------------12bv-------------------------------|
|--------------------------------------------------------------------------------|

|-19w=12===24~----|
|-20w=13===25~----|
|-----------------|
|-----------------|
|-----------------|
|-----------------|

Back-up during Solo
|----------------------------------------------------------|
|----------------------------------------------------------|
|-8-7-7/8-8-----------------8-7-7/8\7-7--------------------|
|-8-7-7/8-8-8-8-888-8-8-888-8-7-7/8\7-7-7-7-777-7-7-777----|
|-6-5-5/6-6-6-6-666-6-6-666-6-5-5/6\5-5-5-5-555-5-5-555----|
|----------------------------------------------------------|
PM|         - - --- - - ---             - - --- - - ---

|----------------------------------------------------------|
|----------------------------------------------------------|
|-8-7-8\7-7-----------------8-7----------------------------|
|-8-7-8\7-7-7-7-777-7-7-777-8-7---------7-77777777---------|
|-6-5-6\5-5-5-5-555-5-5-555-6-5-6-7-5-6-5-55555555---------|
|----------------------------------------------------------|
PM|         - - --- - - ---             - --------

Final Chorus
2x (guitar comes in at 3:44)
|-------------------------------------------------------------------|
|-------------------------------------------------------------------|
|--------8---8---8-8-8---9---9-8-8-8-8/9\8-8---8---8-8-8------------|
|--------8-888-888-8-8-889-999-8-8-8-8/9\8-8-888-888-8-8-88888888---|
|--------6-666-666-6-6-667-777-6-6-6-6/7\6-6-666-666-6-6-66666666---|
|-------------------------------------------------------------------|
PM|        --  --      --  --                --  --      --------

Outro
|-----------------------------------------------|
|-----------------------------------------------|
|-----------------------------------------------|
|-----------------------------------------------|
|-2--22-3\2--22-22-3\2--22-22-3\2--22-22-3\2----|
|-0--00-1\0--00-00-1\0--00-00-1\0--00-00-1\0----|
  PM|--      -- --      -- --      -- --


Key
----
PM = Palm Mute
. = staccato 
/ = slide up 
\ = slide down
w = use whammy bar

*Please Rate*
Tap to rate this tab
# A B C D E F G H I J K L M N O P Q R S T U V W X Y Z