Song name
# A B C D E F G H I J K L M N O P Q R S T U V W X Y Z

Nightwish - Sahara tab

BAND: Nightwish
SONG: Sahara
TABBER: wrseguitarplayr
SPECIAL THANKS TO: some unregistered guy/girl who tabbed this before me, thanks for your help.

If there are some mistakes, mail me at rubentiehuis@msn.com. 
I didn't use a guitar when tabbing this.
I was just changing it so you guys can play it in drop d. 
And I made it shorter to XD enjoy^^

INTRO
GTR 2
    S S S E  S S E  S S S S S S S    S S S S S S S S S S S S S S S S 
E||--------------------------------|----------------------------------|
B||------1-3-----------------------|----------2-----------------------|
G||--0----------3-4----0-2-3-5-3-2-|------3-5---5-3-2-5---3---2---0-2-|
D||----0------0------0-------------|--3-1---------------3---3---3-----|
A||--------------------------------|----------------------------------|
D||--------------------------------|----------------------------------| X4
//////////////////////////////////////////////////////////////////////

INTRO
GTR 1

|----------------------------------|------------------------------|    |---|
|----------------------------------|------------------------------|    |---|
|----------------------------------|------------------------------|    |---|
|---------2H~----------------------|------------------------------|    |-0-|
|------3------0-1H~----------------|----1-3-5-3-1-0-3---1---0----0|    |-0-|
|-3H~-----------------5-7-8-10-8-4-|--3---------------3---3---3-5-| X4 |-0-|
                                                      .   .   .
RIFF 1
|------------------------------------------|
|------------------------------------------|
|-7~--9~---10~--7~--7h8~------17---14~-----|
|------------------------------------------|
|------------------------------------------|
|------------------------------------------|

|---------------------------10---9--------------13-12-|
|-------------------------------------11---10AH-------|
|-7~--9~---10~--9^----9p7p5---------------------------|
|-----------------------------------------------------|
|-----------------------------------------------------|
|-----------------------------------------------------|

RIFF 2
|--------------------------------|	|
|--------------------------------|	|
|--------------------------------|	|
|--------------------------------|	|
|--0-----------------0-0-3-0-6-0-|	|
|--0--0--0--0--0--0--0-0-3-0-6-0-|X3	|
      .  .  .  .  .  			|||X2
RIFF 3					|
|-----------------------------|		|
|-----------------------------|		|
|------------------------6----|		|
|------------------------6----|		|
|---0--------------0--0--4----|		|
|---0--0--0--0--0--0--0-------|		|
      .  .  .  .  .  .

:::::RIFF 2::::: X3

RIFF 4
-----------------------------------|
-----------------------------------|
-----------------------------------|
-----------------------------------|
--2--------------------------------|
--0--0--0--0--0--0--0--0--0--0--0--|
     .  .  .  .  .  .  .  .  .  .

RIFF 5
|--------------------------------------| 
|--------------------------------------|
|--------------------------------------|
|--------------------------------------| 
|--3-3-3-3----3-3----3--3--5--6--5--1--| 
|--3-3-3-3----3-3----3--3--5--6--5--1--| 
                     .  .  .  .  .  .  

RIFF 6
|-------------------------------|
|-------------------------------|
|-------------------------------|
|-------------------------------|
|--3-3-3-3----3-3----3--3--1----|
|--3-3-3-3----3-3----3--3--1----|
                     .  .  . 

:::::RIFF 5:::::

RIFF 7
-------------------------------|
-------------------------------|
--------------------------6----|
--------------------------6----|
--3-3-3-3----3-3----3--3--4----|
--3-3-3-3----3-3----3--3-------|

:::::RIFF 5:::::
:::::RIFF 6:::::
:::::RIFF 5:::::

RIFF 8
|-------|
|-------|
|-8---6-|
|-8---6-|
|-6---4-|
|-------|

:::::RIFF 2::::: X3
:::::RIFF 3:::::
:::::RIFF 2::::: X3
:::::RIFF 4:::::
:::::RIFF 5:::::
:::::RIFF 6:::::
:::::RIFF 5:::::
:::::RIFF 7:::::
:::::RIFF 5:::::
:::::RIFF 6:::::
:::::RIFF 5:::::
:::::RIFF 8:::::

|-------------------|
|-------------------|
|-------------------|
|-------------------|
|-------------------|
|/////PICKSCRAP/////|

RIFF 9
|-------------------------------------|
|-------------------------------------|
|-------------------------------------|
|-------------------------------------|
|-0-0-0-0-0---0-0-0-0-0---3---0---4H~-|
|-0-0-0-0-0---0-0-0-0-0---3---0-------|
  . . . . .   . . . . .

RIFF 10
|--------------------------------------------------------------------------|
|--------------------------------------------------------------------------|
|--------------------------------------------------------------------------|
|------------------------------------------------------------------------0-|
|-0-0-0--0-0-0-0-0--0-0-0-0-0-0-0-0-0--0-0-0-0-0---3--0--2H~-0-0-0---0-0-0-|
|-0-0-0--0-0-0-0-0--0-0-0-0-0-0-0-0-0--0-0-0-0-0---3--0------0-0-0---0-0-0-|
  . . .   . . . . .   . . . . . . . . .   . . . . .             . . .   . . 

:::::RIFF 9:::::
 
RIFF 11
|--------------------------------------------------------------------------|
|--------------------------------------------------------------------------|
|--------------------------------------------------------------------------|
|------------------------------------------------------------------------0-|
|-0-0-0--0-0-0-0-0--0-0-0-0-0-0-0-0-0--0-0-0-0-0---3--0--4H~-0-0-0---0-0-0-|
|-0-0-0--0-0-0-0-0--0-0-0-0-0-0-0-0-0--0-0-0-0-0---3--0------0-0-0---0-0-0-|
  . . .   . . . . .   . . . . . . . . .   . . . . .             . . .   . .

:::::RIFF 5:::::	|
:::::RIFF 6:::::	|
:::::RIFF 5:::::	|
:::::RIFF 7:::::	|
:::::RIFF 5:::::	|X4
:::::RIFF 6:::::	|
:::::RIFF 5:::::	|
:::::RIFF 8::::: 	|

i think i beeped it up...
Tap to rate this tab
 
# A B C D E F G H I J K L M N O P Q R S T U V W X Y Z