Song name
# A B C D E F G H I J K L M N O P Q R S T U V W X Y Z

Nightwish - Wish You Were Here tab

hola... es mi primera tablatura y creo ke tmb la primera de esta cancion en toda la pagina jiji!!


guitarra acustica

|--------0--0-----------|-----3--0-----------|--------0--3--0-----------|-----3--0------------|
|-----0--------0--------|--3--------0--------|-----0-----------0--------|--3--------0---------|
|-----------------0-----|--------------0-----|--------------------0-----|--------------0------|
|--------------------0--|--0--------------0--|-----------------------0--|--0--------------0---|
|-----------------------|--------------------|--------------------------|---------------------|
|--0--------------------|--------------------|--0-----------------------|---------------------|

|--------0--3--0-----------|--------0--3--0-----------|-------3-----0------------|--------5-----2-----------|
|-----0-----------0--------|-----0-----------0--------|----------0------1--------|-----3-----3-----3--------|
|--------------------0-----|--------------------0-----|----0---------------0-----|--------------------2-----|
|-----------------------2--|-----------------------2--|-----------------------2--|-----------------------4--|
|--------------------------|--------------------------|--3-----------------------|--------------------------|
|--0-----------------------|--0-----------------------|--------------------------|--2-----------------------|

|-------3-----3-----------|--3-----------3-----------|--------0--3--0-----------|--------0--3--0-----------|
|----3-----3-----0--------|-----0-----------0--------|-----0-----------0--------|-----0-----------0--------|
|-------------------0-----|--------0-----------0-----|--------------------0-----|--------------------0-----|
|----------------------0--|-----------0-----------0--|-----------------------2--|-----------------------0--|
|-------------------------|--------------------------|--------------------------|--------------------------|
|--3----------------------|--2-----------------------|--0-----------------------|--0-----------------------|

|--------3-----3-----------|--------5-----2------------|--------3-----3-----------|--------------2-----------|
|-----------0-----1--------|-----3-----3-----3---------|-----3-----------0--------|-----------0-----0--------|
|-----0--------------0-----|--------------------3------|-----------0--------0-----|--------2-----------2-----|
|-----------------------2--|------------------------4--|-----------------------0--|-----1-----------------1--|
|--3-----------------------|---------------------------|--------------------------|--2-----------------------|
|--------------------------|--2------------------------|--3-----------------------|--------------------------|

|--------5-----2-----------|---------0--3--0---------|--------0--3--0-----------|--------3-----0-----------|
|-----0-----0-----0--------|-----0------------0------|-----0-----------0--------|-----------------1--------|
|--------------------2-----|---------------------0---|--------------------0-----|-----0-----0--------0-----|
|-----------------------1--|-----------------------2-|-----------------------2--|-----------------------2--|
|--2-----------------------|-------------------------|--------------------------|--3-----------------------|
|--------------------------|--0----------------------|--0-----------------------|--------------------------|

|-----5-----2-----------|--------0--3--0-----------|-----2--12------------|-------11--7-----------|
|--------------3--------|-----0-----------0--------|------------12--------|----7---------7-----0--|
|--------2--------2-----|--------------------0-----|----------------9-----|-----------------8-----|
|--0-----------------4--|-----------------------2--|-------------------9--|-----------------------|
|-----------------------|--------------------------|----------------------|-----------------------|
|-----------------------|--0-----------------------|--2-------------------|--7--------------------|

|--------0--3--0-----------|--------0--3--0-----------|--------3-----0-----------|--------5-----2-----------|
|-----0-----------0--------|-----0-----------0--------|-----------------1--------|-----3-----3-----3--------|
|--------------------0-----|--------------------0-----|-----0-----0--------0-----|--------------------------|
|-----------------------2--|-----------------------2--|-----------------------2--|--------------------2-----|
|--------------------------|--------------------------|--3-----------------------|-----------------------4--|
|--0-----------------------|--0-----------------------|--------------------------|--2-----------------------|

|--------3-----3-----------|--------2--7--0-----|--------0--3--0-----------|--------0--3--0-----------|
|-----3-----3-----3--0-----|-----3-----------\--|-----0-----------0--------|-----0-----------0--------|
|--------------------------|-----------------/--|--------------------0-----|--------------------0-----|
|--------------------------|-----------------\--|-----------------------2--|-----------------------2--|
|-----------------------0--|--------------------|--------------------------|--------------------------|
|--3-----------------------|--0-----------------|--0-----------------------|--0-----------------------|

|--------3-----0-----------|--------5-----2-----------|--------3-----3-----------|--------------2-----------|
|-----------------1--------|-----3-----3-----3--------|-----3-----3-----3--0-----|-----------0-----0--------|
|-----0-----0--------0-----|--------------------2-----|--------------------------|--------2-----------2-----|
|-----------------------2--|-----------------------4--|-----------------------0--|-----1-----------------1--|
|--3-----------------------|--------------------------|--------------------------|--2-----------------------|
|--------------------------|--2-----------------------|--3-----------------------|--------------------------|

|--------5-----2-----------|--------0--3--0-----------|--------0--3--0-----------|--------0--4--0-----------|
|-----0-----0-----0--------|-----0-----------0--------|-----0-----------0--------|-----0-----------0--------|
|--------------------2-----|--------------------0-----|--------------------0-----|--------------------1-----|
|-----------------------1--|-----------------------2--|-----------------------2--|-----------------------2--|
|--------------------------|--------------------------|--------------------------|--------------------------|
|--2-----------------------|--0-----------------------|--0-----------------------|--0-----------------------|

|--------0--4--0-----------|-----------5--0-----------|-----------5--0------------|--------5--2-----------|
|-----0-----------0--------|--------1-----------------|--------1------------------|--------------3--------|
|--------------------1-----|-----2-----------5--2-----|-----2------------5--2-----|-----3-----------2-----|
|-----------------------2--|-----------------------2--|------------------------2--|--------------------4--|
|--------------------------|--------------------------|--0------------------------|--0--------------------|
|--0-----------------------|--0-----------------------|---------------------------|-----------------------|

|--------5--2-----------|--------3--3-----------|--------2--2----------|--------0--4--0-----------|
|-----3--------3--------|-----0--------0--------|--------------0-------|-----0-----------0--------|
|-----------------2-----|-----------------0-----|-----2-----------2----|--------------------1-----|
|--0-----------------4--|--------------------0--|-------------------1--|-----------------------2--|
|-----------------------|-----------------------|--2-------------------|--------------------------|
|-----------------------|--3--------------------|----------------------|--0-----------------------|

|--------0--4--0-----------|-----------5--0-----------|-----------5--0------------|--------5--2-----------|
|-----0-----------0--------|--------1-----------------|--------1------------------|--------------3--------|
|--------------------1-----|-----2-----------5--2-----|-----2------------5--2-----|-----3-----------2-----|
|-----------------------2--|-----------------------2--|------------------------2--|--------------------4--|
|--------------------------|--------------------------|--0------------------------|--0--------------------|
|--0-----------------------|--0-----------------------|---------------------------|-----------------------|

|--------5--2--------------|--------3--3-----------|--------2--2-----------|--------2--2-----------|
|-----3--------3-----------|-----3--------0--------|--------------0--------|--------------0--------|
|-----------------2--------|-----------------0-----|-----2-----------2-----|-----2-----------2-----|
|--0-----------------4-----|--------------------0--|--------------------1--|--------------------1--|
|--------------------------|-----------------------|--2--------------------|--2--------------------|
|--------------------------|--3--------------------|-----------------------|-----------------------|

|--------0--3--0-----------|--------0--3--0-----------|--------0--3--0-----------|--------0--3--0-----------|
|-----0-----------0--------|-----0-----------0--------|-----0-----------0--------|-----0-----------0--------|
|--------------------0-----|--------------------0-----|--------------------0-----|--------------------0-----|
|-----------------------2--|-----------------------2--|-----------------------2--|-----------------------2--|
|--------------------------|--------------------------|--------------------------|--------------------------|
|--0-----------------------|--0-----------------------|--0-----------------------|--0-----------------------|
Tap to rate this tab
# A B C D E F G H I J K L M N O P Q R S T U V W X Y Z