Song name
# A B C D E F G H I J K L M N O P Q R S T U V W X Y Z

Nightwish - Ghost Love Score tab

Nightwish
Ghost Love Score- Solo
Once
       Cm       Bb             Cm       F         Gm     Dm       Cm
D|-------------------------------------------------------------------------|
G|---------10----------------------10--------------------------------------|
C|12~~---10--10-12---10-9--------10--10-12-10-----9---------------7-9------|
F|-----12----------------12-10-12------------12~~--10----------------10----|
A|-----------------------------------------------------7-7-10-10---------7-|
D|-------------------------------------------------------------------------|

  Gm      Eb          F       Gm
|-----------------------------------|
|---------10-10-12--13--15--17----\-|
|---------10------------------------|
|-10-9-7~~--------------------------|
|-----------------------------------|
|-----------------------------------|

~ vibrato
\ slide down
Tap to rate this tab
# A B C D E F G H I J K L M N O P Q R S T U V W X Y Z