Song name
# A B C D E F G H I J K L M N O P Q R S T U V W X Y Z

Nightwish - Creek Marys Blood tab

Nightwish
Creek Mary´s Blood- Solo
Once

D|------------------------------------------------------------------------|
G|-15-13------------------------------------11-13-10---10-----------------|
C|------12---12-10-12-10-12-14---14-10-12----------------10-12---12-10-12-|
F|------------------------------------------------------------------------|
A|------------------------------------------------------------------------|
D|------------------------------------------------------------------------|


|---------------------------------------------------------13-----------|
|-------------------------------------------------13-15-----13---------|
|-10-12-14---12-14-15-14-12-10-12---10-12-14-15-14------------14-12-10-|
|----------------------------------------------------------------------|
|----------------------------------------------------------------------|
|----------------------------------------------------------------------|


|---------------|
|---10-11-------|
|-12-----12---9-|
|---------------|
|---------------|
|---------------|
Tap to rate this tab
# A B C D E F G H I J K L M N O P Q R S T U V W X Y Z