Guitaretab - guitar tabs
Song name
# A B C D E F G H I J K L M N O P Q R S T U V W X Y Z

Nightwish - The Siren tab

Artist: Nightwish
Song: The Siren
Album: Once
Tuning: D Standard

Riff 1 (4x): (00:08 - 00:25)
 
d|---------------------------------------------------------------|
A|---------------------------------------------------------------|
F|-------12-00000-8877-000-10-00000-5577-00000-44455-0h1p0-------|
C|---------------------------------------------------------------|
G|---------------------------------------------------------------|
D|---------------------------------------------------------------|

Riff 2 (1x): (00:25 - 00:33)

d|---------------------------------------------------------------------|
A|---------------------------------------------------------------------|
F|---------------------------------------------------------------------|
C|---555-55-555------555-55-555------555-55-555------555-55-555--------|
G|---555-55-555------555-55-555------555-55-555------555-55-555--------|
D|---333-33-333-3534-333-33-333-5434-333-33-333-3534-333-33-333-5434---|

Riff 3 (1x): (01:05 - 01:35)

d|--------------------------------------------|
A|--------------------------------------------|
F|---3~------5~--3~------5~--3~------5~--3~---|
C|---3~--5~--5~--3~--5~--5~--3~--5~--5~--3~---|
G|---1~--5~--3~--1~--5~--3~--1~--5~--3~--1~---|
D|-------3~----------3~----------3~-----------|
 
Riff 1 (4x): (01:36 - 01:53)
 
d|---------------------------------------------------------------|
A|---------------------------------------------------------------|
F|-------12-00000-8877-000-10-00000-5577-00000-44455-0h1p0-------|
C|---------------------------------------------------------------|
G|---------------------------------------------------------------|
D|---------------------------------------------------------------|
[ Tab from: http://www.guitaretab.com/n/nightwish/191152.html ]
Riff 4 (1x): (01:53 - 01:54)

d|----------|
A|----------|
F|----------|
C|----------|
G|---6545---|
D|----------|

Riff 5 (1x): (01:55 - 02:23)

d|----------------------------------------------------------------|
A|----------------------------------------------------------------|
F|----------------------------------------------------------------|
C|---555-55-555--555-55-555--555-55-555--555-55-555--666-66-666---|
G|---555-55-555--555-55-555--555-55-555--555-55-555--666-66-666---|
D|---333-33-333--333-33-333--333-33-333--333-33-333--444-44-444---|

Riff 6 (1x): (02:24 - 02:25)

d|---------------|
A|---------------|
F|---------------|
C|---------------|
G|---6543--------|
D|-------6543~---|

Riff 7 (1x): (02:57 - 03:04)

d|------------------------------------|
A|------------------------------------|
F|------------------------------------|
C|---555-555-5-------555-555-5--------|
G|---555-555-5-345~--555-555-5-345~---|
D|---333-333-3-------333-333-3--------|

Riff 8: (1x): (03:05 - 03:22)

d|---------------------------------------------------------------|
A|---------------------------------------------------------------|
F|---------------------------------------------------------------|
C|---555555555555555555555555555555555555555555555555555555555---|
G|---555555555555555555555555555555555555555555555555555555555---|
D|---333333333333333333333333333333333333333333333333333333333---|

Riff 3 (1x): (03:23 - 03:54)

d|----------------------------------------------------|
A|----------------------------------------------------|
F|---3~------5~--3~------5~--3~------5~--3~------5~---|
C|---3~--5~--5~--3~--5~--5~--3~--5~--5~--3~--5~--5~---|
G|---1~--5~--3~--1~--5~--3~--1~--5~--3~--1~--5~--3~---|
D|-------3~----------3~----------3~----------3~-------|
Related for The Siren tab
×
The Siren