Song name
# A B C D E F G H I J K L M N O P Q R S T U V W X Y Z

Nightwish - Amaranth tab

This is the Piano aspect of Amaranth played on guitar.
It is also my first tab, so be kind.

e----------17--15-13-12--10-8---------------17--15-13-12--10-8------------|
B---12-14----13--------10---------12-14-------13-------------------12-14--|
G-13---------------------------13--------------------------------13-------|
D-------------------------------------------------------------------------|
A-------------------------------------------------------------------------|
E-------------------------------------------------------------------------|

e-----------------17--15-13-12--10-8------------------------------------17-|
B---12-14-12--------13-----------------------------------------------------|
G-13---------13--------------------------13-15-17----15-17-19-----17-19----|
D--------------------------------------15----------17-----------19---------|
A--------------------------------------------------------------------------|
E--------------------------------------------------------------------------|
Tap to rate this tab
 
# A B C D E F G H I J K L M N O P Q R S T U V W X Y Z