Song name
# A B C D E F G H I J K L M N O P Q R S T U V W X Y Z

Nightwish - Sleeping Sun tab

-------------------------------------------------------------------------------
			     Sleeping Sun - Nightwish
-------------------------------------------------------------------------------
Tabbed by: Borbi01
Email: sebastianmorlang@googlemail.com

This song is in standard tuning like all songs from the first 3 albums.
If you have any suggestions and corrections etc. please post them... 


Tuning: Standard

Verse:
e|-------------------------------------------------------------|
B|-------------------------------------------------------------|
G|-------------------------------------------------------------|
D|-------------------------------------------------------------|
A|-5-5-5--5-5-5---5-5-5--5-5-5---3-3-3--3-3-3---3-3-3--3-3-3---|
E|-------------------------------------------------------------|
   x x x  x x x   x x x  x x x   x x x  x x x   x x x  x x x

e|---------------------------------------------------------------------------|
B|-------------------------------8-------------------------------------------|
G|-----------------------------------------------------------------7---------|
D|-----------------------------------------------------------------7---------|
A|-----------------------------------------------------------------5---------|
E|-5-5-5--5-5-5---5-5-5--5-5-5-------6-6-6--6-6-6---3-3-3--3-3-3-------------|
   x x x  x x x   x x x  x x x       x x x  x x x   x x x  x x x

Solo:
e|-8\3--10\5--3--------------3-5-/10--10\8--5\--6-5-3--8-6-5--5--17-15-13----13-15------|
B|---------------3--5---6-6-----------------------------------------------17-------15\--|
G|--------------------------------------------------------------------------------------|
D|--------------------------------------------------------------------------------------|
A|--------------------------------------------------------------------------------------|
E|--------------------------------------------------------------------------------------|

e|---------------------------------------------------------------------------|
B|-3--5--6-------------------------------------------------------------------|
G|---------------------------------------------------------------------------|
D|---------------------------------------------------------------------------|
A|---------------------------------------------------------------------------|
E|---------------------------------------------------------------------------|

Chorus (after the solo):
e|---------------------------------------------------------------------------|
B|---------------------------------------------------------------------------|
G|-----6---------------6-----------6---8-------8-----------------------------|
D|-3---6---6---8---3---6---3---3---6---8---6---8---3-------------------------|
A|-3---4---6---8---3---4---3---3---4---6---6---6---3-------------------------|
E|-1-------4---6---1-------1---1-----------4-------1-------------------------|



| /  slide up
| \  slide down
| h  hammer-on
| p  pull-off
| ~  vibrato
| +  harmonic
| x  Mute note
===============================================================================
Tap to rate this tab
 
# A B C D E F G H I J K L M N O P Q R S T U V W X Y Z