Song name
# A B C D E F G H I J K L M N O P Q R S T U V W X Y Z

Nightwish - White Night Fantasy tab

-------------------------------------------------------------------------------
			           WHITE NIGHT FANTASY - Nightwish
-------------------------------------------------------------------------------

Tabbed by: Daniel
Email: danielcj_24@hotmail.com - for comments

Tuning: Standard.

This is my first tab. I believe it is pretty accurate. Enjoy.


e|-------------------------------------------------------3-5-6-5-------|
B|8-(8)s3-3-3--------------------------------------------3-------6-8-6-|
G|-------------2-3-5s7-3-2-0-2-3-5s7--(7)----------------x-------------|
D|----------------------------------------5-5-3-3h5--(5)---------------|
A|---------------------------------------------------------------------|
E|---------------------------------------------------------------------|

        
e|---------------------------------------------------------------------|
B|-(6)-3-3/6--6p4------------------------------------------------------|
G|----------------7-8-5-7---5-----------7-7h8p7-5----------------------|
D|------------------------8---7-8-5-7-8-----------8-7h8p7-5--(5)-------|
A|---------------------------------------------------------------------|
E|---------------------------------------------------------------------|


e|-6p5---------------6-5h6p5-------------------------------------------|
B|-----6p4-6-3--(3)----------6--8-6-4-3--6-4-3----4-3------------------|
G|---------------------------------------------5------5-3--7-5-3-------|
D|---------------------------------------------------------------7-5---|
A|---------------------------------------------------------------------|
E|---------------------------------------------------------------------|


e|---------------------------------------------------------------------|
B|--------------8---7s11-10--------------------------------------------|
G|-5s7s5--(5)-7---7---------10--10h12-12~--(12)~-----------------------|
D|---------------------------------------------------------------------|
A|---------------------------------------------------------------------|
E|---------------------------------------------------------------------|

Please rate. Thanks.

************************************

| /   slide up
| \   slide down
| h   hammer-on
| p   pull-off
| ~   vibrato
| +   harmonic
| x   Mute note
| b   Bend
| pb  Pre-bend
| br  Bend release
| pbr Pre-bend release
| brb Bend release bend
| ()  Hold note
************************************
Tap to rate this tab
# A B C D E F G H I J K L M N O P Q R S T U V W X Y Z