Song name
# A B C D E F G H I J K L M N O P Q R S T U V W X Y Z

Nightwish - Two For Tragedy tab

-------------------------------------------------------------------------------
			     Two For Tragedy - Nightwish
-------------------------------------------------------------------------------
Tabbed by: Borbi01
Email: sebastianmorlang@googlemail.com


Tuning: Standard


Flute Part: (1 octave lower than the original part...)
e|-8--7-5------12-10-8----------------------|
B|--------5------------8--10-12--10---------|
G|----------------------------------12-11---|
D|------------------------------------------| 
A|------------------------------------------|
E|------------------------------------------|

Solo:
e|-/5---------5--------------------8---7-5------------------------------------|
B|----8--3-5----8--3h5-/7-5---7-8----------7-8--7---5-------------------------|
G|------------------------------------------------7---5-7-4-5-4---------------|
D|--------------------------------------------------------------5-7-5-4-------|
A|----------------------------------------------------------------------5-7---|
E|----------------------------------------------------------------------------|

e|----------------------------------------------------------------|
B|---------------5---------------------3h5p3-5h7-7h8-8h10-10h12---|
G|---------4-5-7----4-7--4h5-(4)-5h7p5----------------------------|
D|---4-5-7--------------------------------------------------------|
A|-7--------------------------------------------------------------|
E|----------------------------------------------------------------|
   x x x x x x x    x        (x)

Chorus:
e|----------------------------------------------------------|
B|----------------------------------------------------------|
G|------5----7-------4--5-------------------5----4----(4)---|
D|-2----5----7----5--4--5----5----7----2----5----4----(4)---|
A|-2----3----5----5--2--3----5----7----2----3----2----(2)---|
E|-0--------------3----------3----5----0--------------------|




| /  slide up
| \  slide down
| h  hammer-on
| p  pull-off
| ~  vibrato
| +  harmonic
| x  Mute note
===============================================================================
Tap to rate this tab
# A B C D E F G H I J K L M N O P Q R S T U V W X Y Z