Song name
# A B C D E F G H I J K L M N O P Q R S T U V W X Y Z

Nightwish - Forever Yours tab

-------------------------------------------------------------------------------
			     Forever Yours - Nightwish
-------------------------------------------------------------------------------
Tabbed by: Borbi01
Email: sebastianmorlang@googlemail.com


Tuning: D (D,G,C,F,A,D)


This is the correct tuning. Emppu isn't using Drop D...


1:26
d|---------------------------------------|
A|---------------------------------------|
F|------4------------------7-------------|
C|-4----4----2----4----4---7----2----4---|
G|-4----2----2----4----4---5----2----4---|
D|-2---------0----2----2--------0----2---|

02:28
d|---------------------------------------|
A|---------------------------------------|
F|------4------------------7-------------|
C|-4----4----2----4----4---7----2----4---|
G|-4----2----2----4----4---5----2----4---|
D|-2---------0----2----2--------0----2---|

d|---------------------------------------|
A|---------------------------------------|
F|------7------------------4-------------|
C|-4----7----2----4----4---4----2----4---|
G|-4----5----2----4----4---2----2----4---|
D|-2---------0----2----2--------0----2---|

d|-----------------------------------|
A|-----------------------------------|
F|-2---------4---------2-------------|
C|-2----2----4----4----2----2----4---|
G|-0----2----2----4----0----2----4---|
D|------0---------2---------0----2---|




| /  slide up
| \  slide down
| h  hammer-on
| p  pull-off
| ~  vibrato
| +  harmonic
| x  Mute note
===============================================================================
Tap to rate this tab
 
# A B C D E F G H I J K L M N O P Q R S T U V W X Y Z