Nightwish - Over The Hills And Far Away tab

This is a studio-live mix version of the song, because I anyway can't play this awesome
of the live version. If I write 2 abilities, there are differences between studio and
so you can chose. To understand this tab, you really have to know the rythm of the song, 
I wrote the tab, not the rythm. I only play what I heard and saw ,so there can be
But I hope you'll enjoy.


Intro (2x):

e:-0-2-3-0-0-5-0-0-7-0-0-8-7-5-7-0-0-0---0-2-5-3-2--------------------------|
B:-------------------------------------3------------------------------------|
G:--------------------------------------------------------------------------|
D:--------------------------------------------------------------------------|
A:--------------------------------------------------------------------------|
E:--------------------------------------------------------------------------|

e:-0-2-3-0-0-5-0-0-7-0-0-8-5-7-8-5-5-5-7-8-10-8-7---------------------------|
B:------------------------------------------------10-8-7--------------------|
G:--------------------------------------------------------------------------|
D:--------------------------------------------------------------------------|
A:--------------------------------------------------------------------------|
E:--------------------------------------------------------------------------|


Verse 1:

e:--------------------------------------------------------------------------|
B:--------------------------------------------------------------------------|
G:--------------------------------------------------------------------------|
D:--------------------------------------------------------------------------|
A:-2-2-2-2-2-2-2-2-2-2-2-2-5-5-5-5-5-5-5-5-5-5-5-5-2-2-2-2-2-2-2-2-2-2-2-2--|
E:-0-0-0-0-0-0-0-0-0-0-0-0-3-3-3-3-3-3-3-3-3-3-3-3-0-0-0-0-0-0-0-0-0-0-0-0--|
  p.m.......................................................................|

e:--------------------------------------------------------------------------|
B:--------------------------------------------------------------------------|
G:--------------------------------------------------------------------------|
D:-7-7-7-7-7-7-7-7-7-7-7-7--------------------------------------------------|
A:-5-5-5-5-5-5-5-5-5-5-5-5-2-2-2-2-2-2-2-2-2-2-2-2-5-5-5-5-5-5-5-5-5-5-5-5--|
E:-------------------------0-0-0-0-0-0-0-0-0-0-0-0-3-3-3-3-3-3-3-3-3-3-3-3--|
  ..........................................................................|

e:--------------------------------------------------------------------------|
B:------------------------------(5h8p5)----can be played in studio version--|
G:--------------------------------------------------------------------------|
D:-7-7-7-7-7-7-7-7-7-7-7-7-9-9-9-9-9-9-9-9-9-9-9-9--------------------------|
A:-5-5-5-5-5-5-5-5-5-5-5-5-7-7-7-7-7-7-7-7-7-7-7-7--------------------------|
E:--------------------------------------------------------------------------|
  ..........................................................................|

Bridge:

e:--------------------------------------------------------------------------|
B:--------------------------------------------------------------------------|
G:--------------------------------------------------------------------------|
D:-5-5-5-5-5-5-5-5-5-5-5-5-5-5-5-5-5-5-5-5-5-5-5-5-7-7-7-7-7-7-7-7-7-7-7-7--|
A:-3-3-3-3-3-3-3-3-3-3-3-3-3-3-3-3-3-3-3-3-3-3-3-3-5-5-5-5-5-5-5-5-5-5-5-5--|
E:--------------------------------------------------------------------------|
  p.m.......................................................................|

e:--------------------------------------------------------------------------|
B:--------------------------------------------------------------------------|
G:--------------------------------------------------------------------------|
D:-7-7-7-7-7-7-7-7-7-7-7-7-5-5-5-5-5-5-5-5-5-5-5-5-5-5-5-5-5-5-5-5-5-5-5-5--|
A:-5-5-5-5-5-5-5-5-5-5-5-5-3-3-3-3-3-3-3-3-3-3-3-3-3-3-3-3-3-3-3-3-3-3-3-3--|
E:--------------------------------------------------------------------------|
  ..........................................................................|

e:--------------------------------------------------------------------------|
B:--------------------------------------------------------------------------|
G:--------------------------------------------------------------------------|
D:-7-7-7-7-7-7-7-7-7-7-7-7-7-7-7-7-7-7-4--7---------------------------------|
A:-5-5-5-5-5-5-5-5-5-5-5-5-5-5-5-5-5-5-2--5---------------------------------|
E:--------------------------------------------------------------------------|
  p.m.......................................................................|


Chorus (2x):

e:--------------------------------------------------------------------------|
B:--------------------------------------------------------------------------|
G:-----------7----9----7---------5----7-------------------------------------|
D:-2----5----7----9----7----5----5----5-------------------------------------|
A:-2----5----5----7----5----3----3----5-------------------------------------|
E:-0----3-------------------3-----------------------------------------------|


Riff:

e:-0-2-3-0-0-5-0-0-7-0-0-8-7-5-7-0-0-0---0-2-5-3-2--------------------------|
B:-------------------------------------3------------------------------------|
G:--------------------------------------------------------------------------|
D:--------------------------------------------------------------------------|
A:--------------------------------------------------------------------------|
E:--------------------------------------------------------------------------|


Verse:

e:------------------------------------------------------(-0-2-5-3-2)--------|
B:------------------------------------------------------(3---------)-studio-|
G:--------------------------------------------------------------------------|
D:-------------------------------------------------7-7-xxx-7-7-xxx----------|
A:-2-2-xxx-2-2-xxx-5-5-xxx-5-5-xxx-2-2-xxx-2-2-xxx-5-5-xxx-5-5-xxx----------|
E:-0-0-xxx-0-0-xxx-3-3-xxx-3-3-xxx-0-0-xxx-0-0-xxx--------------------------|
  p.m.......................................................................|

e:----------------------------------------------------(----12)--------------|
B:----------------------------------------------------(--8---)--studio------|
G:----------------------------------------------------(9-----)--------------|
D:---------------------------------7-7-xxx-7-7-xxx-9-9-xxx-9-9-xxx----------|
A:-2-2-xxx-2-2-xxx-5-5-xxx-5-5-xxx-5-5-xxx-5-5-xxx-7-7-xxx-7-7-xxx----------|
E:-0-0-xxx-0-0-xxx-3-3-xxx-3-3-xxx------------------------------------------|
  ..........................................................................|


Bridge:

e:---------------------3-3--2-2--3-3--2-2-----------------------------------|
B:-5-5--3-3--5-5--3-3--3-3--3-3--3-3--3-3-----------------------------------|
G:-5-5--5-5--5-5--5-5--2-2--2-2--2-2--2-2-----------------------------------|
D:-5-5--5-5--5-5--5-5--0-0--0-0--0-0--0-0-----------------------------------|
A:-3-3--3-3--3-3--3-3-------------------------------------------------------|
E:--------------------------------------------------------------------------|

e:--------------------3-3--2-2----------------------------------------------|
B:5-5--3-3--5-5--3-3--3-3--3-3----------------------------------------------|
G:5-5--5-5--5-5--5-5--2-2--2-2---4--7---------------------------------------|
D:5-5--5-5--5-5--5-5--0-0--0-0---2--5---------------------------------------|
A:3-3--3-3--3-3--3-3--------------------------------------------------------|
E:--------------------------------------------------------------------------|


Chorus (2x):

e:--------------------------------------------------------------------------|
B:--------------------------------------------------------------------------|
G:-----------7----9----7---------5----7-------------------------------------|
D:-2----5----7----9----7----5----5----5-------------------------------------|
A:-2----5----5----7----5----3----3----5-------------------------------------|
E:-0----3-------------------3-----------------------------------------------|


Bridge:

e:--------------------------------------------------------------------------|
B:--------------------------------------------------------------------------|
G:--------------------------------------------------------------------------|
D:--------7777-5555---------------------------------------------------------|
A:-2-5555-5555-3333---------------------------------------------------------|
E:-0-3333-------------------------------------------------------------------|
  p.m.......................................................................|

now is a little time without guitar...

Riff (There is also a keabord-part before that, you can play it too... With keabord
you play it two times, without only one time):


e:-0-2-3-0-0-5-0-0-7-0-0-8-7-5-7-0-0-0---0-2-5-3-2--------------------------|
B:-------------------------------------3------------------------------------|
G:--------------------------------------------------------------------------|
D:--------------------------------------------------------------------------|
A:--------------------------------------------------------------------------|
E:--------------------------------------------------------------------------|

e:-0-2-3-0-0-5-0-0-7-0-0-8-5-7-8-5-5-5-7-8-10-8-7---------------------------|
B:------------------------------------------------10-8-7--------------------|
G:--------------------------------------------------------------------------|
D:--------------------------------------------------------------------------|
A:--------------------------------------------------------------------------|
E:--------------------------------------------------------------------------|

Before solo is a keabord part, but I do not play this, because it's REALLY for keabord,
with guitar it's not almost easy...

In the keabord part, you play the same like the drums:

e:--------------------------------------------------------------------------|
B:--------------------------------------------------------------------------|
G:--------------------------------------------------------------------------|
D:--------------------------------------------------------------------------|
A:-2222-----2222-----2------------------------------------------------------|
E:-0000-----0000-----0------------------------------------------------------|

e:--------------------------------------------------------------------------|
B:--------------------------------------------------------------------------|
G:--------------------------------------------------------------------------|
D:--------------------------------------------------------------------------|
A:-2(hold)------2222-----2(hold)--------------------------------------------|
E:-0(hold)------0000-----0(hold)--------------------------------------------|


Solo (I have two abilities, for persons who can't tap and for persons who can. I
it up in parts, so it's easier to understand):

part for both:

e:-0-2-3-0-0-5-0-0-7-0-0-8-0-0-8/12-0-0-0-0-0-------------------------------|
B:--------------------------------------------3-----------------------------|
G:--------------------------------------------------------------------------|
D:--------------------------------------------------------------------------|
A:--------------------------------------------------------------------------|
E:--------------------------------------------------------------------------|

For Persons who can't tap:

e:--------------------------------------------------------------------------|
B:-888777888777-------------------------------------------5-----------------|
G:--------------9-7---7---7---------------------------4-7-------------------|
D:------------------9---9-------------------5-7-5-7-5-----------------------|
A:--------------------------------------------------------------------------|
E:--------------------------------------------------------------------------|

For persons who can:

e:--------------------------------------------------------------------------|
B:8p5h8p5h8p5h7p5h7p5h7p5h8p5h8p5h8p5h7p5h7p5h7p5---------------------------|
G:------------------------------------------------9-7---7---7---------------|
D:----------------------------------------------------9---9-----------------|
A:--------------------------------------------------------------------------|
E:--------------------------------------------------------------------------|

part for both:

e:--------------------------------------------------------------------------|
B:---------------5----------------------------------------------------------|
G:-----------4-7------------------------------------------------------------|
D:-5-7-5-7-5----------------------------------------------------------------|
A:--------------------------------------------------------------------------|
E:--------------------------------------------------------------------------|

e:-12-12-12-14-14-14-15-15-15-17-17-17-19-19-19-22-22-22-24-----------------|
B:--------------------------------------------------------------------------|
G:---------------------------------------(the 24 you play with tremolo)-----|
D:--------------------------------------------------------------------------|
A:--------------------------------------------------------------------------|
E:--------------------------------------------------------------------------|


Bridge:

e:--------------------------------------------------------------------------|
B:--------------------------------------------------------------------------|
G:--------------------------------------------------------------------------|
D:-5-5-5-5-5-5-5-5-5-5-5-5-5-5-5-5-5-5-5-5-5-5-5-5-7-7-7-7-7-7-7-7-7-7-7-7--|
A:-3-3-3-3-3-3-3-3-3-3-3-3-3-3-3-3-3-3-3-3-3-3-3-3-5-5-5-5-5-5-5-5-5-5-5-5--|
E:--------------------------------------------------------------------------|
  p.m.......................................................................|

e:--------------------------------------------------------------------------|
B:--------------------------------------------------------------------------|
G:--------------------------------------------------------------------------|
D:-7-7-7-7-7-7-7-7-7-7-7-7-5-5-5-5-5-5-5-5-5-5-5-5-5-5-5-5-5-5-5-5-5-5-5-5--|
A:-5-5-5-5-5-5-5-5-5-5-5-5-3-3-3-3-3-3-3-3-3-3-3-3-3-3-3-3-3-3-3-3-3-3-3-3--|
E:--------------------------------------------------------------------------|
  ..........................................................................|

e:--------------------------------------------------------------------------|
B:--------------------------------------------------------------------------|
G:--------------------------------------------------------------------------|
D:-7-7-7-7-7-7-7-7-7-7-7-7-7-7-7-7-7-7-4--7---------------------------------|
A:-5-5-5-5-5-5-5-5-5-5-5-5-5-5-5-5-5-5-2--5---------------------------------|
E:--------------------------------------------------------------------------|
  p.m.......................................................................|


Before Chorus, there is a part with only singing tack.
Chorus (studio ending)(4x):

e:--------------------------------------------------------------------------|
B:--------------------------------------------------------------------------|
G:-----------9----11----9---------7----9------------------------------------|
D:-4----7----9----11----9----7----7----9------------------------------------|
A:-4----7----7----9-----7----7----5----7------------------------------------|
E:-2----5--------------------5----------------------------------------------|

I hope you like my tab. Good luck!
Tap to rate this tab
 
# A B C D E F G H I J K L M N O P Q R S T U V W X Y Z