Nightwish - Eva tab

-------------------------------------------------------------------------------
			     EVA - Nightwish
-------------------------------------------------------------------------------
Tabbed by: GuitarNexus
Email: geirwin@yahoo.com

Tuning: Standard

E:-----------------------------------------------------------------------------|
B:-15--15-14-12-10--12---------------------------------------------------------|
G:---------------------11--11-14-14-11-----------------------------------------|
D:--------------------------------------14-12---12/14-16-17--17-16-14-14h16----|
A:--------------------------------------------------------------------------14-|
E:-----------------------------------------------------------------------------|


E:------------------------14p12------------------------------------------------|
B:--------------10-12-----------10-14~~*---------------------------------------|
G:-/11--16p11-9--------11-----------------------------11-14-/16--14--16p14-11--|
D:--------------------------------------14-12---12-14--------------------------|
A:-----------------------------------------------------------------------------|
E:-----------------------------------------------------------------------------|

/-slide
~-bend
*-pinch harmonics
Made: 28th August 2010
Tap to rate this tab
 
# A B C D E F G H I J K L M N O P Q R S T U V W X Y Z