Song name
# A B C D E F G H I J K L M N O P Q R S T U V W X Y Z

Nightwish - Last Of The Wilds tab

LAST OF THE WILDS

--12--------------------------------------|-------12----15----L--17--|
------------------------------13----------|--------------------------|
------------------------------------14----|--L-----------------------|
------------------------------------------|--------------------------|
------------------------------------------|--------------------------|
------------------------------------------|--------------------------|

--15--13--12-------L--L----|--12--------------------|--------------------------|
---------------------------|------------13----------|-------13----12----L--13--|
---------------------------|------------------14----|--L-----------------------|
---------------------------|------------------------|--------------------------|
---------------------------|------------------------|--------------------------|
---------------------------|------------------------|--------------------------|

 
--------------------------|--15----------------|--L--------12--------|
--15--13--12--------------|--------------------|---------------------|
----------------14--------|--------------------|---------------------|
--------------------------|--------------------|---------------------|
--------------------------|--------------------|---------------------|
--------------------------|--------------------|---------------------|

--L----------------|--15----------------|--L--------12----L----|
-------------------|--------------------|----------------------|
-------------------|--------------------|----------------------|
-------------------|--------------------|----------------------|
-------------------|--------------------|----------------------|
-------------------|--------------------|----------------------|

--10--8--------L--L----|--12--------L----10----|---L--12--13----12-----L----|
-----------------------|-----------------------|----------------------------|
-----------------------|-----------------------|----------------------------|
-----------------------|-----------------------|----------------------------|
-----------------------|-----------------------|----------------------------|
-----------------------|-----------------------|----------------------------|

--L--8-----------------|-----------------------|-------------------------|
--------10--------L----|--13--------L----12----|---L--10--8----10--------|
-----------------------|-----------------------|-------------------------|
-----------------------|-----------------------|-------------------------|
-----------------------|-----------------------|-------------------------|
-----------------------|-----------------------|-------------------------|




-------------------|--12--------------------|-------12----15----L----|
--L----------------|------------13----------|------------------------|
-------------------|------------------14----|--L---------------------|
-------------------|------------------------|------------------------|
-------------------|------------------------|------------------------|
-------------------|------------------------|------------------------|

--13---L--12--L--------L--|--12--------------------|-------------------------|
--------------------------|------------13----------|-------------------------|
--------------------------|------------------14----|--L--------12-----L--14--|
--------------------------|------------------------|-------------------------|
--------------------------|------------------------|-------------------------|
--------------------------|------------------------|-------------------------|

--------------------------|--12--------------------|-------12----15----L--17--|
--------------------------|------------13----------|--------------------------|
--16---L--14-----L--------|------------------14----|--L-----------------------|
--------------------------|------------------------|--------------------------|
--------------------------|------------------------|--------------------------|
--------------------------|------------------------|--------------------------|

--15--13--12--L--------L--|--12--------L------------|----------------------|
--------------------------|---------------13--------|-----------13----L----|
--------------------------|-------------------14----|--L-------------------|
--------------------------|-------------------------|----------------------|
--------------------------|-------------------------|----------------------|
--------------------------|-------------------------|----------------------|

-------------------------|-------------------|-------------------|
--L----12----L--10--8----|-------------------|-------------------|
-------------------------|-------------------|-------------------|
-------------------------|-------------------|-------------------|
-------------------------|-------------------|-------------------|
-------------------------|-------------------|-------------------|
Tap to rate this tab
 
# A B C D E F G H I J K L M N O P Q R S T U V W X Y Z