Song name
# A B C D E F G H I J K L M N O P Q R S T U V W X Y Z

Nightwish - Storytime tab

Nightwish - Storytime
Tuning: D Standart ( D G C F A D)

Intro 0:12 - 0:43

|---------------------------------------------|
|---------------------------------------------|
|------------------------------3-3------------|
|-5-5---------5-5--------------3-3-3-3--------|
|-5-5---------5-5--------------1-1-3-3--------|
|-3-3---------3-3------------------1-1--------|

|---------------------------------------------|
|---------------------------------------------|
|---------------------------------------------|
|-5---5--6--5---5---5--6--5---5--3-3-3-3-3----|
|-5---5--6--5---5---5--6--5---5--3-3-3-3-3----|
|-3---3--4--3---3---3--4--3---3--1-1-1-1-1----|
                                                     
|---------------------------------------------|
|---------------------------------------------|
|---------------------------------------------|
|-5---5--6--5---5---5--6--5---6--4------------|
|-5---5--6--5---5---5--6--5---6--4------------|
|-3---3--4--3---3---3--4--3---4--2------------|

|---------------------------------------------|
|---------------------------------------------|
|---------------------------------------------|
|-5---5--6--5---5---5--6--5---5--3-3-3-3-3----|
|-5---5--6--5---5---5--6--5---5--3-3-3-3-3----|
|-3---3--4--3---3---3--4--3---3--1-1-1-1-1----|

|------------------------------------------------|
|------------------------------------------------|
|------------------------------------------------|
|-5---5--6--5---5---5--6--5---6-6--4-4-----------|
|-5---5--6--5---5---5--6--5---6-6--4-4-----------|
|-3---3--4--3---3---3--4--3---4-4--2-4-----------|


Verse 0:53 - 1:07

|-----------------|
|-----------------|
|--3-3------------|
|--3-3-3-3--------|
|--1-1-3-3--------|
|------1-1--------|

|---------------------------------------------|
|---------------------------------------------|
|---------------------------------------------|
|-5---5--6--5---5---5--6--5---5--3-3-3-3-3----|
|-5---5--6--5---5---5--6--5---5--3-3-3-3-3----|
|-3---3--4--3---3---3--4--3---3--1-1-1-1-1----|
                                                     
|---------------------------------------------|
|---------------------------------------------|
|---------------------------------------------|
|-5---5--6--5---5---5--6--5---6--4------------|
|-5---5--6--5---5---5--6--5---6--4------------|
|-3---3--4--3---3---3--4--3---4--2------------|

|---------------------------------------------|
|---------------------------------------------|
|---------------------------------------------|
|-5---5--6--5---5---5--6--5---5--3-3-3-3-3----|
|-5---5--6--5---5---5--6--5---5--3-3-3-3-3----|
|-3---3--4--3---3---3--4--3---3--1-1-1-1-1----|

|---------------------------------------------|
|---------------------------------------------|
|--------------------3-3-3-3-3-3-3-3----------|
|-5---5--6--5---5----3-3-3-3-3-3-3-3----------|
|-5---5--6--5---5----1-1-1-1-1-1-1-1----------|
|-3---3--4--3---3-----------------------------|

Chorus 1:08 - 1:32

|---------------------------------------------|
|---------------------------------------------|
|--------3-------------5----------------------|
|-5------3-x16--3------5-x16------------------| repeat 2x
|-5-x16--1------3-x16--3----------------------|
|-3-------------1-----------------------------|


|------|
|------|
|------|
|-5-5--| 
|-5-5--|
|-3-3--|

After Breakdown 1:37 - 1:50

|--------------------------------------------|
|--------------------------------------------|
|--------------------------------------------|
|----5--6--5---5---5--6--5---5--3-3-3-3-3----|
|----5--6--5---5---5--6--5---5--3-3-3-3-3----|
|----3--4--3---3---3--4--3---3--1-1-1-1-1----|
                                                     
|---------------------------------------------|
|---------------------------------------------|
|---------------------------------------------|
|-5---5--6--5---5---5--6--5---6--4------------|
|-5---5--6--5---5---5--6--5---6--4------------|
|-3---3--4--3---3---3--4--3---4--2------------|

|---------------------------------------------|
|---------------------------------------------|
|---------------------------------------------|
|-5---5--6--5---5---5--6--5---5--3-3-3-3-3----|
|-5---5--6--5---5---5--6--5---5--3-3-3-3-3----|
|-3---3--4--3---3---3--4--3---3--1-1-1-1-1----|

|-------------------------------------|
|-------------------------------------|
|-------------------------------------|
|-5---5--6--5------6-6--4-4-----------|
|-5---5--6--5------6-6--4-4-----------|
|-3---3--4--3------4-4--2-4-----------|

Verse 1:51 - 2:15

|---------------------------------------------|
|---------------------------------------------|
|---------------------------------------------|
|-5---5--6--5---5---5--6--5---5--3-3-3-3-3----|
|-5---5--6--5---5---5--6--5---5--3-3-3-3-3----|
|-3---3--4--3---3---3--4--3---3--1-1-1-1-1----|
                                                     
|---------------------------------------------|
|---------------------------------------------|
|---------------------------------------------|
|-5---5--6--5---5---5--6--5---6--4------------|
|-5---5--6--5---5---5--6--5---6--4------------|
|-3---3--4--3---3---3--4--3---4--2------------|

|---------------------------------------------|
|---------------------------------------------|
|---------------------------------------------|
|-5---5--6--5---5---5--6--5---5--3-3-3-3-3----|
|-5---5--6--5---5---5--6--5---5--3-3-3-3-3----|
|-3---3--4--3---3---3--4--3---3--1-1-1-1-1----|

|--------------------------------------|
|--------------------------------------|
|--------------------3-3-3-3-----------|
|-5---5--6--5---5----3-3-3-3-3-3-3-3---|
|-5---5--6--5---5----1-1-1-1-3-3-3-3---|
|-3---3--4--3---3------------1-1-1-1---|

|---------------------------------------------|
|---------------------------------------------|
|---------------------------------------------|
|-5---5--6--5---5---5--6--5---5--3-3-3-3-3----|
|-5---5--6--5---5---5--6--5---5--3-3-3-3-3----|
|-3---3--4--3---3---3--4--3---3--1-1-1-1-1----|
                                                     
|---------------------------------------------|
|---------------------------------------------|
|---------------------------------------------|
|-5---5--6--5---5---5--6--5---6--4------------|
|-5---5--6--5---5---5--6--5---6--4------------|
|-3---3--4--3---3---3--4--3---4--2------------|

|---------------------------------------------|
|---------------------------------------------|
|---------------------------------------------|
|-5---5--6--5---5---5--6--5---5--3-3-3-3-3----|
|-5---5--6--5---5---5--6--5---5--3-3-3-3-3----|
|-3---3--4--3---3---3--4--3---3--1-1-1-1-1----|

|---------------------------------------------|
|---------------------------------------------|
|--------------------3-3-3-3-3-3-3-3----------|
|-5---5--6--5---5----3-3-3-3-3-3-3-3----------|
|-5---5--6--5---5----1-1-1-1-1-1-1-1----------|
|-3---3--4--3---3-----------------------------|

Chorus 2:16 - 2:53

|---------------------------------------------|
|---------------------------------------------|
|--------3-------------5----------------------|
|-5------3-x16--3------5-x16------------------| repeat 3x
|-5-x16--1------3-x16--3----------------------|
|-3-------------1-----------------------------|

|------|
|------|
|------|
|-5\0--| 
|-5\0--|
|-3\0--|


Bridge 3:33 - 4:13

|---------------------------------------------|
|---------------------------------------------|
|--5------------------------------------------|
|--5-5--5\4/5----7-7-7----5\4/5-5\4/5---------| 
|--3-5--5\4/5----7-7-7----5\4/5-5\4/5---------|
|----3--3\2/3----5-5-5----3\2/3-3\2/3---------|
                                                     repeat 2x
|---------------------------------------------|
|---------------------------------------------|
|--5------------------------------------------|
|--5-5--5\4/5-5/7\5-5\4/5-5\4/5---------------| 
|--3-5--5\4/5-5/7\5-5\4/5-5\4/5---------------|
|----3--3\2/3-3/5\3-3\2/3-3\2/3---------------|

|-------------------------------------------------------------------------|
|-5-5-5-5-5-5-5-5-7-7-7-7-7-7-7-7-8-8-8-8-8-8-8-8-10-10-10-10-10-10-10-10-|
|-------------------------------------------------------------------------|
|-------------------------------------------------------------------------| 
|-------------------------------------------------------------------------|
|-------------------------------------------------------------------------|

|-----|
|-10*-|
|-----|
|-----| 
|-----|
|-----|

Chorus


|--------------------------------------|---------|
|--------------------------------------|---------|
|--------3-------------5---------------|---------|
|-5------3-x16--3------5-x16-----------|---5-5---| 
|-5-x16--1------3-x16--3---------------|---5-5---|
|-3-------------1----------------------|---3-3---|

repeat until end but play until 4:59 the rhytm of the intro
Tap to rate this tab
# A B C D E F G H I J K L M N O P Q R S T U V W X Y Z